Lyndsay Diaries - Cowboy Text Guitar Tab

Learn the song with the online tablature player
Cowboy - Lyndsay Diaries

im kinda lasy soo...

Intro
e|-0-0-0-0-0-------3---------------------------------------------------------|
B|-1-1-1-3-1-1-3-3-3-0-------------------------------------------------------|
G|-2-2-2-2-2-2-0-0-0-0-------------------------------------------------------|
D|-2-2-2-2-2-0-2-2-2-2-------------------------------------------------------|
A|-0-0-0-0-0-3-2-2-2-2-------------------------------------------------------|
E|-0-0-0-0-0-------0---------------------------------------------------------|

Pretty Much the Whole Song
e|-----------0-0-0-0---------------------------------------------------------|
B|-1-1-1-3-1-3-0-3-0---------------------------------------------------------|
G|-2-2-2-2-2-0-0-0-0---------------------------------------------------------|
D|-2-2-2-2-2-2-2-2-2---------------------------------------------------------|
A|-----------2-2-2-2---------------------------------------------------------|
E|-----------0-0-0-0---------------------------------------------------------|

Interlude
e|-----------0-0-0-0---------------------------------------------------------|
B|-1-1-1-3-1-3-0-3-0---------------------------------------------------------|
G|-2-2-2-2-2-0-0-0-0---------------------------------------------------------|
D|-2-2-2-2-2-2-2-2-2---------------------------------------------------------|
A|-----------2-2-2-2---------------------------------------------------------|
E|-----------0-0-0-0---------------------------------------------------------|
palm mute this part