Lynn Strait - Sad Air Text Guitar Tab

Learn the song with the online tablature player
Sad Air
Strait Lynn

!!! Tune the Low E down to a D !!!

Stroll 1.
e|-----------------------------|-------------------------------|
b|-----------------------------|-------------------------------|
g|-----------------------------|-------------------------------|
d|-----------------------------|-------------------------------|
a|---------1--1--1--1--0-----0-|---------1--1--1--1--0-----3---|
D|---0--0-----------------0----|---0--0-----------------0------|

e|-----------------------------|-------------------------------|
b|-----------------------------|-------------------------------|
g|-----------------------------|-------------------------------|
d|-----------------------------|------------------3--2---------|
a|---------1--1--1--1--0-----0-|---------------1---------------|
D|---0--0-----------------0----|---0--0-b3--0------------------|

Stroll 2.
e|-----------------------------|-------------------------------|
b|-----------------------------|-------------------------------|
g|-----------------------------|-------------------------------|
d|-----------------------------|-------------------------------|
a|---------1--1--1--1--0-----0-|---------1--1--1--1--0-----3---|
D|---0--0-----------------0----|---0--0-----------------0------|

e|-----------------------------|-------------------------------|
b|-----------------------------|-------------------------------|
g|-----------------------------|-------------------------------|
d|-----------------------------|---------------------3--2------|
a|---------1--1--1--1--0-----0-|------------0-----1------------|
D|---0--0-----------------0----|---0--0--3-----1---------------|

Play stroll 1. Followed by:
                                (-*-): slide and play same time
e|-----------------------------|-------------------------------|
b|--5b5------------------------|-------------------------------|
g|-------2h3-3p2---------------|--------------(-*-)------------|
d|-----------------------------|---0-0-2--2-2-2s3s2p0----------|
a|-----------------------------|-------------------------------|
D|---------------------0---0---|-----------------------0-------|

Stroll 3.
     Dm               C            Dm
e|---1-1-----------------------|---1-1-------------------------|
b|---3-3--------------1--------|---3-3-------------------------|
g|---2-2-----------------------|---2-2--------------------3-2--|
d|------2p0-2p0-----2-2-3p2----|------2p0-2p0-------2---5------|
a|--------------2s3---3-----3--|--------------1-1s3------------|
D|-0---------------------------|-0--------------------5--------|
Stroll 4.
      Dm        C                  Dm
e|---1-1------------0----------|---1-1-------------------------|
b|---3-3--------1---1----------|---3-3-------------------------|
g|---2-2--------------3-2------|---2-2-------------------3-2---|
d|------2p0-2p0-2-2-------0----|------2p0-2p0------2---5-------|
a|--------------3--------------|-------------1-1s3-------------|
D|-0---------------------------|-0-------------------5---------|

In stroll 3 and 4 the second guitar plays the chords.

There is no text cause it's a spoken interview with Lynn's vision about drugs. The rest will be added in
while.

Greets from Holland, Dirk.