Lynni Treekrem - Mexico Text Guitar Tab

Learn song with the online tabulature player
Lynni Treekrem - Mexico
=======================

WWW  : http://www.hrmusic.com/artists/lynnitreekrem.html
Band : Lynni Treekrem
Music: Lynni Treekrem
Text : Lynni Treekrem
Tab  : Thomas Teigland, thomas_teigland@yahoo.com

My first Lynni Treekrem tab. This norwegian and
mexican song became very popular in Norway, spring
2004. Special thanks to Team Antonsen for making
it so funny and popular. Enjoy! :-)
--- 

Intro:

e----------9---12-----------------------------12--
B--7-7-7---9---14---14----/14---14---12-----------
G--7-7-7---9---14-----14----------------11/13-----
D--7-7-7----------------14---14---14--------------
A-------------------------------------------------
E-------------------------------------------------

Verse:
   A          A/G#     A/F#      E
e----0----0----0----0----0----0----0---0----------
B----2----2----2----2----2----2----0---0----------
G----2----2----2----2----2----2----1---1----------
D----2--2------2--2------2--2------2---2----------
A--0---------------------------------2------------
E------------4---------2---------0----------------

   A          A/G#     A/F#      E
e----0----0----0----0----0----0----0---0----------
B----2----2----2----2----2----2----0---0----------
G----2----2----2----2----2----2----1---1----------
D----2--2------2--2------2--2------2---2----------
A--0---------------------------------2------------
E------------4---------2---------0----------------

   D         E          A          D
e----2---2-----0----0-----0----0-----2---2--------
B----3---3-----0----0-----2----2-----3---3--------
G----2---2-----1----1-----2----2-----2---2--------
D--0-----------2----2-----2--2-----0--------------
A------0----------2-----0--------------0----------
E------------0------------------------------------

   A     A/B   D         E
e----0-----0-----2---2-----0----0-----------------
B----2-----2-----3---3-----0----0-----------------
G----2-----2-----2---2-----1----1-----------------
D----2-----0---0-----------2----2-----------------
A--0-----2---------0----------2-------------------
E------------------------0------------------------

Chorus:
    A         E   A  A         E   A
e----0----0---0---0----0----0--0---0--------------
B----2----2---0---2----2----2--0---2--------------
G----2----2---1---2----2----2--1---2--------------
D----2--2-----2---2----2--2----2---2--------------
A--0----------2---0--0---------2---0--------------
E-------------0----------------0------------------

   D                  A
e----2---2----2---2-----0----0---0----0-----------
B----3---3----3---3-----2----2---2----2-----------
G----2---2----2---2-----2----2---2----2-----------
D--0--------0-----------2--2-----2--2-------------
A------0--------0-----0--------0------------------
E-------------------------------------------------

   D        E         A
e----2---2----0---0-----0----0---0----0-----------
B----3---3----0---0-----2----2---2----2-----------
G----2---2----1---1-----2----2---2----2-----------
D--0----------2---2-----2--2-----2--2-------------
A------0--------2-----0--------0------------------
E-----------0-------------------------------------

Bridge:
   F#m      C#m        Bm       C#m
e----2---2------4---4----2---2-----4---4----------
B----2---2------5---5----3---3-----5---5----------
G----2---2------6---6----4---4-----6---6----------
D----4---4--------6--------4---------6------------
A------4-----4---------2---------4----------------
E--2----------------------------------------------

   D                   E
e----2---2----2----2-----0---0----0---0-----------
B----3---3----3----3-----0---0----0---0-----------
G----2---2----2----2-----1---1----1---1-----------
D--0--------0------------2---2----2---2-----------
A------0---------0---------2--------2-------------
E----------------------0--------0-----------------

The order of the song is as follows:

Intro
Verse
Chorus
Verse
Chorus
Bridge
Chorus x4

Thats it, enjoy!

- EOF -