Lynyrd Skynyrd - I Got The Same Old Blues Text Guitar Tab

Learn the song with the online tablature player
Lynyrd Skynyrd
I Got The Same Old Blues

This is the intro, use a bit of muteing
so that it sound a bit better.

bp   =   Bend then pull-off
~    =   Vibrate

Here's the intro:

|---------------------|
|---------------------|
|---------------------| Repeat this four times...
|--2---2--------0-----|
|--0-0---3bp0-0-------|
|---------------------|

|---------------------|
|---------------------|
|-2---2--------0------|Repeat this two times...
|-0-0---3bp0-0--------|
|---------------------|
|---------------------|

|---------------------|
|---------------------|
|---------------------| Repeat this two times...
|--2---2--------0-----|
|--0-0---3bp0-0-------|
|---------------------|

|---------------------|
|---------------------|
|-2---2--------0------|Repeat this two times...
|-0-0---3bp0-0--------|
|---------------------|
|---------------------|

|---------------------|
|---------------------|
|---------------------| Repeat this two times...
|--2---2--------0-----|
|--0-0---3bp0-0-------|
|---------------------|

|---------------------|
|---------------------|
|--2~-----------------| Repeat this Onze...
|--0~----5~-----------|
|--------3~-----------|
|---------------------|

That's the intro...