Lynyrd Skynyrd - Searchin Live Text Guitar Tab

Learn the song with the online tablature player
e|-------------------7------7vv--|
B|-----------------7---7-10------|
G|-9Fb-9p7-------9---------------|
D|---------9vv-------------------|
A|-------------------------------|
E|-------------------------------|

e|-10-12Fb--10-12Fb-12r------------------------------------------|
B|------------------------12-------------------------------------|
G|------------------------11Fb-11-9-11-----------------11-9-9h11-|
D|-------------------------------------(slow)11Fbr--11-----------|
A|---------------------------------------------------------------|
E|---------------------------------------------------------------|

e|-------------------------------------|
B|-------------------------------------|
G|-------------------------------------| 3 X
D|-----9--------12-------7-7--14-(14)--|
A|---9-9-----12-12-----7---7--14-(14)--|
E|-7---7--10----10-5-5-----5--12-(12)--|

e|-------------------------|
B|-------------------------|
G|-------------------------|
D|-----9-------12-7-12-7-2-|
A|---9-9----12-12-7-12-7-2-|
E|-7---7-10----10-9-10-5-0-|

e|---------------------------------------------------|
B|---------------------------------------------------|
G|-------------------------------------------2-2p0---|
D|-12Fb-12vv--9p7-9/11/12-14-9vv--9/21vvv----------2-|
A|---------------------------------------------------|
E|---------------------------------------------------|

e|-------------------------------------|
B|-------------------------------------|
G|-------------------------------------| 3 X
D|-----9--------12-------7-7--14-(14)--|
A|---9-9-----12-12-----7---7--14-(14)--|
E|-7---7--10----10-5-5-----5--12-(12)--|

e|-------------------------|
B|-------------------------|
G|-------------------------|
D|-----9-------12-9-12-7-2-|
A|---9-9----12-12-9-12-7-2-|
E|-7---7-10----10-7-10-5-0-|

e|--------------------------------|
B|--------------------------------|
G|------------------------2-2p0---|
D|-9-----------12---0-2---------2-|
A|-9---9----12-12-2-----0---------|
E|-7-7---10----10-----------------|

e|--------------------------------|
B|--------------------------------|
G|--------------------------------|
D|-9-----------12---0-2---2-2p0---|
A|-9---9----12-12-2-------------2-|
E|-7-7---10----10-------0---------|

e|--------------------------------|
B|--------------------------------|
G|------------------------2-2p0---|
D|-9-----------12---0-2---------2-|
A|-9---9----12-12-2-----0---------|
E|-7-7---10----10-----------------|

e|--------------------------------|
B|--------------------------------|
G|--------------------------------|
D|-9-----------12---0-2---2-2p0---|
A|-9---9----12-12-2-------------2-|
E|-7-7---10----10-------0---------|

e|-14-14--------------12\--(17)-17p15----17p15----|
B|-------14--14-12-14-----------------17-------17-|
G|------------------------------------------------|
D|------------------------------------------------|
A|------------------------------------------------|
E|------------------------------------------------|

e|-17-19b--19b--19b--19b--19br-17--------19b-17-19b-19b\-|
B|--------------------------------19-19\-----------------|
G|-------------------------------------------------------|
D|-------------------------------------------------------|
A|-------------------------------------------------------|
E|-------------------------------------------------------|

e|---------15-----15-----15-----15-----15-----15-----15-18b-18b-18b-|
B|------------18b----18b----18b----18b----18b----18b----------------|
G|-----15-----------------------------------------------------------|
D|-/17--------------------------------------------------------------|
A|------------------------------------------------------------------|
E|------------------------------------------------------------------|

e|-13-10-------10-10-12brp10---------------------------------------|
B|-------10-13---------------12Fb-12p10----------------------------|
G|--------------------------------------(10)-12-10--10-10-12-10----|
D|--------------------------------------------------------------12-|
A|-----------------------------------------------------------------|
E|-----------------------------------------------------------------|

e|-----------------------------------|
B|-----------------------------------|
G|-10-12-12p10-12--10-12-10-12p10----|
D|-------------------------------12--|
A|-----------------------------------|
E|-----------------------------------|

e|-------------------------------------------------------------|
B|----17b-17-15-13-15-------15--15----------15-----13----13----|
G|-10-16b-------------14-16--------14-16-14----14-----12----14-|
D|-------------------------------------------------------------|
A|-------------------------------------------------------------|
E|-------------------------------------------------------------|

e|----------------13-----------------------------------------------|
B|----15-13--------------------------------------------------------|
G|-15-------15-13-----13-13-15-13-15-13-(15)-13-13-15p13-15bp13-10-|
D|-----------------------------------------------------------------|
A|-----------------------------------------------------------------|
E|-----------------------------------------------------------------|

e|-------------------------------------------------|
B|-------------------------------------------------|
G|-------------------------------------------------|
D|-12\9vvv---9p7-9/11-11-16vvv---16-14-12/21vvvv---|
A|-------------------------------------------------|
E|-------------------------------------------------|

e|------------------------------------|
B|------------------------------------|
G|------------------------------------| X 2
D|-----9-------12-------7-7--14-(14)--|
A|---9-9----12-12-----7---7--14-(14)--|
E|-7---7-10----10-5-5-----5--12-(12)--|

e|-----------------------------|
B|-----------------------------|
G|-----------------------------|
D|-9-9-(9)-12-12-(12)--------2-|
A|-9-9-(9)-12-12-(12)-9-12-7-2-|
E|-7-7-(7)-10-10-(10)-7-10-5-0-|

e|--------------------------------|
B|--------------------------------|
G|------------------------2-2p0---|
D|-9-----------12---0-2---------2-|
A|-9---9----12-12-2-----0---------|
E|-7-7---10----10-----------------|

e|--------------------------------|
B|--------------------------------|
G|--------------------------------|
D|-9-----------12---0-2---2-2p0---|
A|-9---9----12-12-2-------------2-|
E|-7-7---10----10-------0---------|

e|--------------------------------|
B|--------------------------------|
G|------------------------2-2p0---|
D|-9-----------12---0-2---------2-|
A|-9---9----12-12-2-----0---------|
E|-7-7---10----10-----------------|

e|--------------------------------|
B|--------------------------------|
G|--------------------------------|
D|-9-----------12---0-2---2-2p0---|
A|-9---9----12-12-2-------------2-|
E|-7-7---10----10-------0---------|

    Delay 5 sec.
e|--------------------------------------|
B|--------------------------------------|
G|------------------------------2-2p0---|
D|-------9-----------12---0-2---------2-|
A|-------9---9----12-12-2-----0---------|
E|-3p0-0-7-7---10----10-----------------|

e|--------------------------------|
B|--------------------------------|
G|--------------------------------|
D|-9-----------12---0-2---2-2p0---|
A|-9---9----12-12-2-------------2-|
E|-7-7---10----10-------0---------|

e|--------------------------------|
B|--------------------------------|
G|------------------------2-2p0---|
D|-9-----------12---0-2---------2-|
A|-9---9----12-12-2-----0---------|
E|-7-7---10----10-----------------|

e|---------------------------------------------|
B|---------------------------------------------|
G|---------------------------------------------|
D|-9-----------12---0-2----h2-2p0-(2)(2)-2p0---|
A|-9---9----12-12-2--------------------------2-|
E|-7-7---10----10-------0----------------------|

e|-----------------------------------------------------------|
B|----13----13-----------------------------------------------|
G|-15----15----15p13-15-15Fb--15p13-13-15-13--15-13----------|
D|--------------------------------------------------15-15-15-|
A|-----------------------------------------------------------|
E|-----------------------------------------------------------|

e|-----------------------------------------------------------|
B|--13h15-15p13-17b-15b-13h15-15p13-15b-13-15-13-15-13-13h15-|
G|-----------------------------------------------------------|
D|-----------------------------------------------------------|
A|-----------------------------------------------------------|
E|-----------------------------------------------------------|

e|-----------------------17p15-----15-----15-----15-----15-|
B|--13-15--15-13-10------------17b----17b----17b----17b----|
G|---------------------------------------------------------|
D|---------------------------------------------------------|
A|---------------------------------------------------------|
E|---------------------------------------------------------|

e|-----15-----15-----15--------------------------------------------|
B|-17b----17b----17b----17b-17-15-13-------------------------------|
G|-----------------------------------14-14bp12-14-14bp12-14-14bp12-|
D|-----------------------------------------------------------------|
A|-----------------------------------------------------------------|
E|-----------------------------------------------------------------|

e|-------------------------------20\----------19b-19b-19b-17r-15----|
B|----16p15-16-17p16-17-18p17-18--------17-----------------------17-|
G|-16--------------------------------19----19-----------------------|
D|------------------------------------------------------------------|
A|------------------------------------------------------------------|
E|------------------------------------------------------------------|

e|-17h19p17-15h17p15----|
B|-------------------17-|
G|----------------------|
D|----------------------|
A|----------------------|
E|----------------------|

| /  slide up
| \  slide down
| h  hammer-on
| p  pull-off
| ~  vibrato
| +  harmonic
| x  Mute note
 bp bend & pull-off
 brp bend release pull-off