Lynyrd Skynyrd - Simple Man Acoustic Text Guitar Tab

Learn the song with the online tablature player
Main Riff   (c-chord)       (G-Chord)            (Am7-Chord)
1---------------------|-------------------|------------------------------|
2-------------1-------|-------------------|----------1-------------------|
3-------0-------0---0-|---------0---------|---2---------2-----2---2----2-|
4---------2-------2---|---0-------0---0---|-----2----------2---------2---|
5-0-2-3-----3---------|-----2-------2-----|0------0----------------------|
6---------------------|-3-----3-----------|------------------------------|
                           Chords
                           ______
  (Am7-Chord)
1--3-----------|          C-032010
2----1-----2---|          G-320001
3-------2------|        Am7-002213
4--------------|         Am-002210
5--------------|
6--------------| Repeat as many times at you want

Chorus
          C    G         Am
And be a simple kind of man.
          C  G                Am
Be something you love and understand.
       C   G          Am
Be a simple kind of man.
          C           G
Won't you do this for me son,
        Am
If you can?