Lynyrd Skynyrd - Sweet Home Alabama Text Guitar Tab

Learn the song with the online tablature player
Sweet Home Alabama - Lynyrd Skynyrd

ive seen a lot of messed up tabs and a lot of CRUEL comments... those together
have inspired me not to Screw this up! RATE and COMMENT, thanks.

UPDATE: The Bridge was fixed, some minor flaws and i added strum pattern
UPDATE #2: the chords to the bridge, more flowing and sounds better

INTRO
e|--------------------------------------------------------------------------|
B|----3----------3----------------------------------------------------------|
G|------2-0--------0-------0------------------------------------------------|
D|0-0----------------0------------0h2p0-------------------------------------|
A|------------3-3-------------0h2--------3----------------------------------|
E|---------------------3-3--------------------------------------------------|

e|--------------------------------------------------------------------------|
B|----3---------3-----------------------------------------------------------|
G|------2-0-------0-------0-----0-2p0-0-4p0-0-5b----------------------------|
D|0-0---------------0-------------------------------------------------------|
A|----------3-3-------------------------------------------------------------|
E|--------------------3-3---------------------------------------------------|

VERSE
e|------------3-------------------------------------------------------------|
B|----3-------3-----3-------------------------------------------------------|
G|----2-------0-----0-------------------------------------------------------|
D|0-0-0-0-----------0------0h2p0--------------------------------------------|
A|--------3-3----------0h2-------3------------------------------------------|
E|--------------3-3---------------------------------------------------------|

e|-----------3--------------------------------------------------------------|
B|----3------3-----3--------------------------------------------------------|
G|----2------0-----0--------------------------------------------------------|
D|0-0-0------------0---------2-4~-------------------------------------------|
A|-------3-3-----------0-2h4------------------------------------------------|
E|-------------3-3----------------------------------------------------------|

BRIDGE
you can use this... (Recommended)
         D U D      D D  D U D U D
e|-------7-7-7------5-5---3-3-3-3-3-----------------------------------------|
B|-------7-7-7------5-5---3-3-3-3-3-----------------------------------------|
G|-------7-7-7------5-5---4-4-4-4-4-----------------------------------------|
D|-------7-7-7------5-5---5-5-5-5-5-----------------------------------------|
A|-7h8h9-9-9-9--5h7-7-7---5-5-5-5-5-----------------------------------------|
E|------------------------3-3-3-3-3-----------------------------------------|

...or this (or you could add a guitar and play both!)

e|--------------------------------------------------------------------------|
B|---------3-3--------1-1-1----------0--------------------------------------|
G|--------------------------------------------------------------------------|
D|--2-3-4-----4--1h2--------2-------------------2---------------------------|
A|----------------------------1-2-3---------0h2-----------------------------|
E|---------------------------------------3----------------------------------|

Chorus
e|-----------3--------------------------------------------------------------|
B|-----3-----3-----3--------------------------------------------------------|
G|-----2-----0-----0--------------------------------------------------------|
D|0-0--0-----------0------0h2p0---------------------------------------------|
A|-------3-3----------0h2-------3-------------------------------------------|
E|-------------3-3----------------------------------------------------------|

e|-----------3--------------------------------------------------------------|
B|-----3-----3-----3--------------------------------------------------------|
G|-----2-----0-----0--------------------------------------------------------|
D|0-0--0-----------0------0h2h4-0h2h4-0h2h4-0h2-0---------------------------|
A|-------3-3--------------------------------------3-------------------------|
E|-------------3-3----------------------------------------------------------|

e|-----------3--------------------------------------------------------------|
B|-----3-----3-----3--------------------------------------------------------|
G|-----2-----0-----0--------------------------------------------------------|
D|0-0--0-----------0------0h2p0---------------------------------------------|
A|-------3-3----------0h2-------3-------------------------------------------|
E|-------------3-3----------------------------------------------------------|

e|-----------3--------------------------------------------------------------|
B|-----3-----3-----3--------------------------------------------------------|
G|-----2-----0-----0--------------------------------------------------------|
D|0-0--0-----------0--------------------------------------------------------|
A|-------3-3----------------------------------------------------------------|
E|-------------3-3----------------------------------------------------------|

in going to try and add BOTH solos later but until then this is what i got.
thanks