Lynyrd Skynyrd - Travelin Man Text Guitar Tab

Learn the song with the online tablature player
Lynyrd Skynyrd

Traveling man (intro)

This is the intro to the song called traveling man, here are four way's
of doing it, you can pick the way that suits you the best.

Here is the first way...

|-------------------------|
|-------------------------|
|-------------------------|
|-12-12--10/12--7-9-10----|
|-12-12--10/12--7-9-10----|
|-10-10--8-/10--5-7-8-----|

Here is the second way...

|-------------------------|
|-------------------------|
|-7-7--5/7--2-4-5---------|
|-7-7--5/7--2-4-5---------|
|-5-5--3/5--0-2-3---------|
|-------------------------|

Here is the third way...

|-------------------------|
|-------------------------|
|-------------------------|
|-------------------------|
|-------------------------|
|-10-10--8h10--5-7-8------|

Or the Fourth way...

|-------------------------|
|-------------------------|
|-------------------------|
|-------------------------|
|-5-5--3h5--0-2-3---------|
|-------------------------|

That's it