M Craft - The Universe Keeps Turning Text Guitar Tab

Learn song with the online tabulature player
-------------------------------------------------------------------------------
                             The Universe Keeps Turning - M Craft
-------------------------------------------------------------------------------
Tabbed by: zts24
Email: lifebat@gmail.com

This song was Specifically wrote for the U.K. Show Skins(S1Ep8) Its a Variation of 
Dragon Fly By M Craft. Its short but sweet.

This Is my first Tab, But I assure its you correct.

Tuning: Standard

e|-----0-----------0------0----------0-----0---------0------0---------0-----|
B|-----1-----0h1---1------1----0h1---1-----1---0h1---1------1---0h1---1-----|
G|--2------------------0----------------------------------------------------|
D|----------------------------------------3----------------2----------------|
A|--------------------------------------------------------------------------|
E|--------------------------------------------------------------------------|

That is the whole song, rather simple it just keeps repeating.


|h = Hammer-on