M2 - Mistery Text Guitar Tab

Learn song with the online tabulature player
e|--------2-------|--------4-------|--------5-------|--------3----7--|
B|------3---7-----|------5---3-----|------7---8-----|------2---1-----|
G|----2-------5---|----7-------7---|----7-------8---|----2-----------|
D|----------------|----------------|----------------|----------------|
A|----------------|----------------|----------------|----------------|
E|-3--------------|-6--------------|-7--------------|-7--------------|

e|--------2-------|--------4-------|--------5-------|--------3----7--|
B|------3---7-----|------5---3-----|------7---8-----|------2---1-----|
G|----2-------5---|----7-------7---|----7-------8---|----2-----------|
D|----------------|----------------|----------------|----------------|
A|----------------|----------------|----------------|----------------|
E|-3--------------|-6--------------|-7--------------|-7--------------|