M2M - Wanna Be Where You Are 2 Text Guitar Tab

Learn the song with the online tablature player
(Piano arranged for guitar)

Intro

 C         G          Am
e-0----0-------|------3-0-----------|-----|
b----------3---|-3-----------1------|--3--|
g----0---0---0-|---0-------2---2----|-----|
d--------------|--------------------|-----|
a-3------------|--------------------|--3--|
E--------------|--------------------|-----|

Verses

  C       G           Am
e-0----0-------|------3-0-----------|
b----------3---|-3-----------1------|
g----0---0---0-|---0-------2---2----|
d--------------|--------------------|
a-3------------|--------------------|
E--------------|--------------------|

  C           Am
e-0---------------|---------------|-0------------|
b----3--1--0--1---|-1---0----0----|---1---1---0--|
g---------------2-|---2----2---2--|-----2---2----|
d-----------------|---------------|--------------|
a-3-----------0---|---------------|--------------|

  C        G          Am              Dm       C
e-0----0-------|------3-0-----------|-----1----0----|
b----------3---|-3-----------1------|-------3-------|
g----0---0---0-|---0-------2---2----|---2---------0-|
d--------------|--------------------|-0-------------|
a-3------------|--------------------|----------3----|
E--------------|--------------------|---------------|
                                     make me ..evrthng
               Dm         Am
e-------------|-----1----------|-0-------0---|
b-------------|-------3--------|-----1-----1-|
g-----------2-|---2------------|-------2-----|
d---------0---|-0------------2-|---2---------|
a--3-2-0------|-----------0----|-------------|
E-------------|----------------|-------------|
             ...u keep me smilin'

              Dm                    C
e-3--3--1--0--1----|-----1-1-1-0---|-0-------0-0-0-|
b------------------|-3-----------3-|-----1---------|
g----------------2-|---2-----------|---0---0-------|
d-------------0----|---------------|---------------|
a-3----------------|---------------|-3-------------|
E------------------|---------------|---------------|

        G                  C
e------------0---|--------------|-------------|
b-3--1--1--------|-3--3--1--1---|-1---1---1---|
g----------2---2-|------------0-|---0---0---0-|
d----------------|--------------|-------------|
a-------0--------|----------3---|-------------|
E----------------|--------------|-------------|

Chorus

Bridge

Instrumental
(last)==>leading to verse
  G  Dm  C  G  C

Ending
 G         D/F#        Em          Dm      C
e----------------|---------------|---------------|
b-0----0---------|---3--0----0---|-----3---------|
g----0---0-------|-2-------0---0-|---2---2-------|
d--------------0-|---------------|-0-----------2-|
a----------------|---------------|----------3----|
E-3---------2----|------0--------|---------------|
  starts...       ...again               ...you

     Dm        C
e--------------|---------------|-----------------|
b----1-----3---|-------1h3-1---|--1---1---1------|
g--0-----2---2-|-----0-------0-|----0---0---0----|
d------0-------|---2-----------|-----------------|
a--------------|-3-------------|-----------------|
E--------------|---------------|-----------------|
 ..uu           ..uu           I wanna be where u

  G
e------------3------|
b----------0--------|
g--------0----------|
d------0------------|
a----2--------------|
E--3----------------|
 are..