M83 - Couleurs Text Guitar Tab

Learn the song with the online tablature player
                             Couleurs (live) - M83

Im gonna tab it the way i play it, ive been watching the way they do it live with
the second guitarist

I use my ebow to loop this for ambience:
e|---------------------------------------------------------------------------|
B|---------------------------------------------------------------------------|
G|---15vvv-------------------------------------------------------------------|
D|---------------------------------------------------------------------------|
A|---------------------------------------------------------------------------|
E|---------------------------------------------------------------------------|

e|---------------------------------------------------------------------------|
B|---------------------------------------------------------------------------|
G|--8-88-8-8-----------------------------------------------------------------|
D|--8-88-8-8--4-44-4-4--8-88-8-8--11-1111-11-11------------------------------|
A|--6-66-6-6--4-44-4-4--8-88-8-8--11-1111-11-11------------------------------|
E|------------2-22-2-2--6-66-6-6---9--9-9--9--9------------------------------|

Main repeated riff:
e|-------------------------------------------------------------------------------------|
B|-------------------------------------------------------------------------------------|
G|--11-11-11-11-11-11-11-11/10-10-10-10-10-10-10-10/8-8-8-8-8-8-8-8/6-6-6-6-6-6-6-6/---|
D|-------------------------------------------------------------------------------------|
A|-------------------------------------------------------------------------------------|
E|-------------------------------------------------------------------------------------|

e|--------------------------------------------------------------------------------------------|
B|--------------------------------------------------------------------------------------------|
G|--11-11-11-11-11-11-11-11/10-10-10-10-10-10-10-10/8-8-8-8-8-8-8-8/10-10-10-10-10-10-10-10/--|
D|--------------------------------------------------------------------------------------------|
A|--------------------------------------------------------------------------------------------|
E|--------------------------------------------------------------------------------------------|

Little change-up
e|-----------------------------------------------------------------------------------------------|
B|-----------------------------------------------------------------------------------------------|
G|--11-11-11-11-11/13-13-13-13/10-10-10-10-10-10-10-10/8-8-8-8-8-8-8-8/10-10-10-10-10-10-10-10/--|
D|-----------------------------------------------------------------------------------------------|
A|-----------------------------------------------------------------------------------------------|
E|-----------------------------------------------------------------------------------------------|