Machine Gun Fellatio - Pussy Town Text Guitar Tab

Learn the song with the online tablature player
     Pussy Town - Machine Gun Fellatio

Intro
which is pretty much the entire song, but... nevermind.)

G|----------------------------------------------|
D|----------------------------------------------|
A|--------0--0-0-0-0-0-0------------------------|
E-0--2--0-----------------0--2X--2X-------------|

aaaaaaand repeat until:

G|----------------------------------------------|
D|-----------4---2------------------------------|
A|------------------4---2---0-------------------|
E|-0--2--0----------------------2---0---h1X-----|

"I'm goin' down, down, down, down, down.... to pussytown."
If my memories from high school music are correct, the last note is staccato :)
and then repeat

and the ending:
G|---------------------------------------------------------------------------|
D|-----------4---2-----------------4---2-------------4--2--------------------|
A|------------------4---2---0------------4---2---0--------4--2--0------------|
E|-0--2--0---------------------2------------------2------------------2-0--h1X|

And thats it.

| /  slide up
| \  slide down
| h  hammer-on
| p  pull-off
| ~  vibrato
| +  harmonic
| x  Mute note