Machine Head - Desire To Fire Text Guitar Tab

Learn the song with the online tablature player
C ---------------------------|
G ---------------------------|
E --------------------------:|
B -0--6666666-0--///--------:|
F#-0--6666666-0--///---------|
B -0--6666666-0--///---------|

C -------------------------|
G -9-10-9-10-9-10-9-10-----|
E -------------------------|
B ---------------------///-|
F#---------------------///-|
B ---------------------///-|

Main Riff/Chorus
C --------------------|
G --------------------|
E --------------------|
B --0-1--4--x-1--4----|
F#--0-1--4--x-1--4----|
B --0-1--4--x-1--4----|

Verse
C --------------------------|
G --------------------------|
E -------------------------:|
B -------------------------:|
F#--^^----------------------|
B --10-0-00-00-0-00-0-------|

Chorus
C --------------------|
G --------------------|
E --------------------|
B --0-1--4--x-1--4----|
F#--0-1--4--x-1--4----|
B --0-1--4--x-1--4----|

Verse
C --------------------------|
G --------------------------|
E -------------------------:|
B -------------------------:|
F#--^^----------------------|
B --10-0-00-00-0-00-0-------|

Chorus
C --------------------|
G --------------------|
E --------------------|
B --0-1--4--x-1--4----|
F#--0-1--4--x-1--4----|
B --0-1--4--x-1--4----|

Breakdown
Chorus
C -----------------------------|
G -----------------------------|
E -----------------------------|
B -0-0-0-0-0-1*-1*-------------|
F#-0-0-0-0-0-1*-1*-------------|
B -0-0-0-0-0-1*-1*-------------|
Use Wah if needed

Fill after Breakdown
C --------------------------|
G --------------------------|
E -------------------------:|
B -------------------------:|
F#--^^----------------------|
B --10-0-00-00-0-00-0-------|

End
C --------------------|
G --------------------|
E --------------------|
B --0-1--4--x-1--4----|
F#--0-1--4--x-1--4----|
B --0-1--4--x-1--4----|