Machine Head - Five Text Guitar Tab

Learn song with the online tabulature player
artist:Machine Head
song  :Five
album :The burning red

Tuning:B f# b E G# C#



intro (heavy breathing-bass, drums )0:00-0:07


           0:07-0:08
|----------------------------------------|
|----------------------------------------|
|----------------------------------------|
|----------------------------------------|
|------------PICK SCRAPE-----------------|
|------------/////\\\////\\\\------------|


         0:30-0:42
|----------------------------------------------------|
|---------3333333------------------------------------|
|---77777-7777777-7777(7777777777)-7p5 --------------|
|--------------------gradually-----------------------|  
|----------------------bend--------------------------|x1
|----------------------------------------------------|

|----------------------------------------------------|
|---------5555555------------------------------------|
|---77777-7777777-7777(7777777777)-7p5 --------------|
|--------------------gradually-----------------------| x1 \
|----------------------bend--------------------------|     \
|----------------------------------------------------|      \
                                                           same time
|----------------------------------------------------|    /
|----------------------------------------------------|   /
|---14--14-12-12-14-14-(14-14-14-14-14)--------------|  /
|(same amount------------gradually ------------------|  
|---as bar above)---------bend-----------------------|
|----------------------------------------------------|

|-----------------------------------|
|-----------------------------------|
|-----------------------------------|
|----Pick slide---------------------|
|---/////////////-------------------|
|---////////////--------------------|

GO!
|----------------------------------------|
|----------------------------------------|        |----------|
|--7-----------3-/-8-\-5-/-7-------------|        |----------|
|--7-----------x---x---x---x-------------|(chorus)|-7-~~-----|
|--5--3--1--4--1-/-6-\-3-/-5-------------|        |-x-~~-----| 
|-----3--1--4----------------------------|        |-5-~~-----| 
                                                  |----------|

                                                (last repeat hold )
     1:08-1:16
|----------------------------------------------------|
|---------3333333------------------------------------|
|---77777-7777777-7777(7777777777)-7p5---------------|
|--------------------gradually-----------------------|  
|----------------------bend--------------------------|
|----------------------------------------------------|
    1:16-1:19
|----------------------------------------------------|
|---------3333333------------------------------------|
|---77777-7777777-7777(7777777777)-7p5 --------------|
|--------------------gradually-----------------------| x1 \
|----------------------bend--------------------------|     \
|----------------------------------------------------|      \
                                                           same time
|----------------------------------------------------|    /
|----------------------------------------------------|   /
|---14--14-12-12-14-14-(14-14-14-14-14)--------------|  /
|(same amount------------gradually ------------------|  
|---as bar above)---------bend-----------------------|
|----------------------------------------------------|


1:21-1:34
|----------------------------------------|
|----------------------------------------|        |----------|
|--7-----------3-/-8-\-5-/-7-------------|        |----------|
|--7-----------x---x---x---x-------------|        |-7-~~-----|
|--5--3--1--4--1-/-6-\-3-/-5-------------|        |-x-~~-----| 
|-----3--1--4----------------------------|        |-5-~~-----| 
                                                  |----------|

                                                (last repeat hold )
1:47-1:53
|----------------------------------------------------|
|---------3333333------------------------------------|
|---77777-7777777-7777(7777777777)-7p5 7777777-------|
|--------------------gradually-----------------------|  
|----------------------bend--------------------------|
|----------------------------------------------------|
1:53-1:58
|----------------------------------------------------|
|---------3333333------------------------------------|
|---77777-7777777-7777(7777777777)-7p5 --------------|
|--------------------gradually-----------------------| x1 \
|----------------------bend--------------------------|     \
|----------------------------------------------------|      \
                                                           same time
|----------------------------------------------------|    /
|----------------------------------------------------|   /
|14-14-12-12-12-14-14-14-14-15-15-17-17-19-19-20-20--|  /
|(same amount--------------------- ------------------|  
|---as bar above)------------------------------------|
|----------------------------------------------------|

2:00-2:12
|----------------------------------------|
|----------------------------------------|        
|--7-----------3-/-8-\-5-/-7-------------|        
|--7-----------x---x---x---x-------------|        
|--5--3--1--4--1-/-6-\-3-/-5-------------|         
|-----3--1--4----------------------------|   

2:12-2:24
|-------------------------------------|
|-------------------------------------|                                                
|-------------------------------------|
|-0-0----3-3----1-1-----1-1-0-1-3-3-4-|
|-0-0----3-3----1-1-----1-1-0-1-3-3-4-|
|-0-0----3-3----1-1-----1-1-0-1-3-3-4-|

w/wah
|---------------------------------------------------|
|---------------------------------------------------|
|---------------------------------------------------|
|---------------------------------------------------|
|--0~~~------------------------0-0------------------|
|--0~~~------------------------0-0------------------|
            \lift wah/         . .
                                                                \
|---------------------------------|                              \
|-------------------------------6-|                            same time
|---7-5---8---7-5---8-----5-7-8---|                              /
|-0-----7---0-----7---0-7---------|                             /
|----------------------------------|
|----------------------------------|

PM................................



 (on last repeat) lift / wah pedal  \
|---------------------|------------|       
|---------------------|----------6-|       
|---7-5---8---7-5---8-|----5-7-8---|          
|-0-----7---0-----7---|0-7---------|    both guitars
|----------------------------------|
|----------------------------------|

PM................................


|--------------------------------|
|--------------------------------|                                                
|--------------------------------|
|-0-0--3-3--1-1----1-1-0-1-3-3-4-|
|-0-0--3-3--1-1----1-1-0-1-3-3-4-|
|-0-0--3-3--1-1----1-1-0-1-3-3-4-|

                                         harmonic and volume swell
|-----------------------------------------*12*----------|
|-----------------------------------------*12*----------|
|-----0------0------------------------------------------|
|---3------7----5---------------------------------------| (CLEAN CHANNEL )
|-5-----/8------6---------------------------------------|
|-------------------------------------------------------|

|-----------------------------------------------------|
|-----------------------------------------------------|
|-----------------------------------------------------|
|-----------------------------------------------------|
|--xx-------xx-------xx--------xx------xx--xx---------|
|--xx-------xx-------xx--------xx------xx--xx---------|



|----------------------------------------|
|----------------------------------------|        
|--7-----------3-/-8-\-5-/-7-------------|        
|--7-----------x---x---x---x-------------|        
|--5--3--1--4--1-/-6-\-3-/-5-------------|         
|-----3--1--4----------------------------|   

|------------------------------------------|
|----0~~~~~~~~~~---------------------------|
|----0~~~~~~~~-----------------------------|
|----0~~~~~~~------------------------------|
|----0~~~~~~~~-----------------------------|
|------------------------------------------|


FIVE
FIVE
FIVE
FIVE

(RANDOM SOUND EFFECTS)