Machine Head - Hard Times Text Guitar Tab

Learn the song with the online tablature player
MACHINE HEAD - HARD TIMES

Tune down one whole step:

6-D 3-F

5-G 2-A

4-C 1-d

 Beginning

|--------------------------------|

|------------------------------r-|

|------------------------------e-|

|------------------------------s-|

|-----------------4----7----5--t-|

|-0-0-0-0-0-0-0-0-2--0-5--0-3----|

 Main (& verse) riff

|-------------------------------|

|-------------------------------|

|-------------------------------|

|-------------------------------|

|-----------------4----7----5---|

|-0-0-0-0-0-0-0-0-2--0-5--0-3---|

 Chorus

|-----------------|

|-----------------|

|-----------------|

|-----------------|

|-7---8---5---3---|

|-5---6---3---1---|

 End

|---------------------------------------------|

|---------------------------------------------|

|---------------------------------------------|

|---------------------------------------------|

|-----------------4----7----5----4----7----5--|

|-0-0-0-0-0-0-0-0-2--0-5--0-3--0-2--0-5--0-3--|