Machine Head - Spine Text Guitar Tab

Learn the song with the online tablature player
I don't claim to be good at doing this but I try (no solo sorry)
Intro\Chorus
C#-------------------------------------------------------------
G#-------------------------------------------------------------
E -------------------------------------------------------------
B -2-4-2-4-2-4-2-5-5-5-5---------------------------------------
f#-2-4-2-4-2-4-2-5-5-5-5---------------------------------------
b -2-4-2-4-2-4-2-5-5-5-5---------------------------------------

Ending1\2 (the (4) is eight palm muted haroincs on the 4th fret)
C#-------------------------|-----------------------------------
G#-------------------------|-----------------------------------
E -------------------------|-----------------------------------
B -2-4-2-4-2-4-2-5-5-7-7-5-|-2-4-2-4-2-4-2-(4)-----------------
f#-2-4-2-4-2-4-2-5-5-7-7-5-|-2-4-2-4-2-4-2-(4)-----------------
b -2-4-2-4-2-4-2-5-5-7-7-5-|-2-4-2-4-2-4-2-(4)-----------------

Verse
C#-------8-----------------------------------------------------
G#----7---7----------------------------------------------------
E ---6-----6---------------------------------------------------
B --4----------------------------------------------------------
f#-------------------------------------------------------------
b -------------------------------------------------------------

Prechorus
harmonic 4th fret on x's)
C#-------------------------------------------------------------
G#-------------------------------------------------------------
E -------------------------------------------------------------
B -4-x-x-x---4-x-x-x---4-x-x-x--4-6-6-6------------------------
f#-4-x-x-x---4-x-x-x---4-x-x-x--4-6-6-6------------------------
b -4-x-x-x---4-x-x-x---4-x-x-x--4-6-6-6------------------------

Bridge
C#------------------------------------------------------------
G#------------------------------------------------------------
E-------------------------------------------------------------
B--4-2-4\5--2-4-2-4\5-4-7-2-4\5--4-2-4\5----------------------
F#-4-2-4\5--2-4-2-4\5-4-7-2-4\5--4-2-4\5----------------------
B--4-2-4\5--2-4-2-4\5-4-7-2-4\5--4-2-4\5----------------------
Hopefully this will encourage someone to fix it casue im not good at hearing different tones