Machine Translations - Youll Change Text Guitar Tab

Learn the song with the online tablature player
Intro x2
e|-------5-5--------5-5--------5-5--------5-5-|
b|-------2-2--------2-2--------2-2--------2-2-|
g|-3--3--3----0--0--0---------------------2---|
d|-----------------------4--4--4----2--2--2---|
a|--------------------------------------------|
e|--------------------------------------------|

Verse 1 x4
(same as intro)
e|-------5-5--------5-5--------5-5--------5-5-|
b|-------2-2--------2-2--------2-2--------2-2-|
g|-2--2--2----0--0--0---------------------2---|
d|-----------------------4--4--4----2--2--2---|
a|--------------------------------------------|
e|--------------------------------------------|

Chorus
e|-------5-5--------5-5--------5-5--------5-5|
b|-------2-2--------0-0--------3-3--------5-5|
g|-------2-2---------------------------------|
d|-0--0-------0--0-------0--0-------0--0-----|
a|-------------------------------------------|
e|-------------------------------------------|

e|-------5-5--------5-5--------5-5--------5-5|
b|-------3-3--------2-2--------0-0--------2-2|
g|----------------------------------------2-2|
d|-0--0-------0--0-------0--0-------0--0-----|
a|-------------------------------------------|
e|-------------------------------------------|

Verse 2
same as verse 1)

Chorus 2
same us chorus 1)

Ending same as intro