Mad Caddies - 10 West Text Guitar Tab

Learn the song with the online tablature player
Title: 10 West
Interpreter: Mad Caddies
Album: Just one More

Chords:

      d       G       C       D(5)    G(5)
e|----5-------3-------3---------------------|
B|----6-------3-------5---------------------|
G|----7-------4-------5-------7-------------|
D|----7-------5-------5-------7-------5-----|
A|----5-------5-------3-------5-------5-----|
E|----5-------3-------3---------------3-----|

Solo
h(hammer on) p(pull of) /(slide) ~(vibrato)

e|-------------------------------------------------|
B|-------------------------------------------------|
G|-------------------------------------------------|
D|----------7-5-h7-p5-----------------7-7-/9~~~~~--|
A|--5-h7-h8-----------8-7-5---8-h7-h8--------------|
E|-------------------------------------------------|

Intro
D(5) G(5) x 3 | last time only C(5)

Verses

d*                              G*
Well I'm back on the road again lost among the city lights
d*                              G*
Were stepping up harder just to make it to the show tonight
d*                      G*
With yesterday's antics still playing in my head
C                        C
Another day's upon us so let's do it again.

It's just another town another day another year
We got to wait till five o'clock before we crack a beer
Somewhere it's gonna be five o'clock yeah that's what we say
It's all just a game to keep ourselves sane.

d*                      G*
Drink smoke drink smoke this is what we do

d*                      G*
Drink smoke drink smoke playing it for you

Ref:
C            G
Born to roam here we go yeah
d            G
Another city and another day
C            G
The road is my home all alone yeah
d            G
Out on the streets is where we gotta staty

* -> play Ska strokes