Mad Caddies - Well Start To Worry When The Cynics Start Believing Text Guitar Tab

Learn the song with the online tablature player
      We'll Start to Worry When the Cynics Start Believing by Mad Caddies

My Favorite Mad Caddies song, can't believe it hasn't been tabbed yet. So
here you go, enjoy! Anything with a [*] above it means strum that chord
multiple times. Since this song is so fast it's hard to portray all the
muting properly, but I've tried to give you a little guidance.

Intro
e|-77-x-4-x-7-x--5555-------------------------------------|
B|-99-x-5-x-9-x--5555-------------------------------------|
G|-99-x-6-x-9-x--6666-[Three times]-then--6-66-6-6--4-2-4-|
D|----------------------------------------6-66-6-6--4-2-4-|
A|----------------------------------------4-44-4-4--2-0-2-|
E|--------------------------------------------------------|

Verse                                                       1st ending 2nd ending
e|---------xx4-xx4-xx5-xx5-----------------xx4-xx4-xx5-xx5-|---------|---------|
B|-xx9-xx9-xx5-xx5-xx5-xx5-xx9-xx9-xx9-xx9-xx5-xx5-xx5-xx5-|xx9-9-99-|-*---*---|
G|-xx9-xx9-xx6-xx6-xx6-xx6-xx9-xx9-xx9-xx9-xx6-xx6-xx6-xx6-|xx9-9-99-|-7---4---|
D|-xx9-xx9-----------------xx9-xx9-xx9-xx9-----------------|xx9-9-99-|-7---4---|
A|---------------------------------------------------------|---------|-5---2---|
E|---------------------------------------------------------|---------|---------|
*First verse plays 3 times. Take first ending twice, then the second ending.

Post-Verse
e|---------------------------------------------------------|
B|-9-5-9---------9-5-9---------9-5-9-----------------------|
G|-9-6-9---------9-6-9---------9-6-9---------6-66-66-4-2-4-|
D|-9-6-9--7-7----9-6-9--xx7----9-6-9--7-7----6-66-66-4-2-4-|
A|-7-4-7--7-7----7-4-7--xx7----7-4-7--7-7----4-44-44-2-0-2-|
E|--------5-5-----------xx5-----------5-5------------------|

Verse
*Second verse plays twice. Take first ending, then second ending

Chorus                                    1st ending       2nd ending
e|---------------------------------------|---------------|----------------|
B|---------------------------------------|---------------|----------------|
G|-9-7-6--4-4----7-6-4--2----9-7-6--4-4--|-5-5-5-57--2-2-|-5-5-5-57-7-7-7-|
D|-9-7-6--4-4----7-6-4--2----9-7-6--4-4--|-5-5-5-57--2-2-|-5-5-5-57-7-7-7-|
A|-7-5-4--2-2----5-4-2--0----7-5-4--2-2--|-3-3-3-35--0-0-|-3-3-3-35-5-5-5-|
E|---------------------------------------|---------------|----------------|

Bridge
e|---------x4x4----------------------5x5x5-------|
B|-99x9x9--x5x5----------------------5x5x5--99-9-|
G|-99x9x9--x6x6--[Three Times]-Then--6x6x6--99-9-|
D|-99x9x9-----------------------------------99-9-|
A|-----------------------------------------------|
E|-----------------------------------------------|

Repeat First Verse
Repeat Chorus

Final Verse (Distortion!)(* = strum multiple times)
e|---------------------------------------------|
B|-*----*--------------*----*------------------|
G|-9----6----*----*----9----6----*-------------|
D|-9----6----7----2----9----6----7----6-4-2-22-|
A|-7----4----7----2----7----4----7----6-4-2-22-|
E|-----------5----0--------------5----4-2-0-00-|

e|--------------------------------------|
B|-*----*--------------*----*----*------|
G|-9----6----*----*----9----6----4----*-|
D|-9----6----7----2----9----6----4----2-|
A|-7----4----7----2----7----4----2----2-|
E|-----------5----0-------------------0-|

e|----------------------------------------------------|
B|-*----*---------*----*----*----*----*----*----------|
G|-9----6----*----9----9----6----4----4----5----------|
D|-9----6----7----9----9----6----4----4----5----5--2~-|
A|-7----4----7----7----7----4----2----2----3----5--2~-|
E|-----------5----------------------------------3--0~-|

Outro
e|--------------------------------------------------------------|
B|--------------------------------------------------------------|
G|-9-6-9---------9-6-9---------9-6-9---------6-66-66-4-2-4---9~-|
D|-9-6-9--7-7----9-6-9--xx7----9-6-9--7-7----6-66-66-4-2-4---9~-|
A|-7-4-7--7-7----7-4-7--xx7----7-4-7--7-7----4-44-44-2-0-2---7~-|
E|--------5-5-----------xx5-----------5-5-----------------------|

That's it, a great song to play once you get it under your fingers.
Please remember to rate and leave comments/corrections!