Mad Capsule Markets - Midi Surf Text Guitar Tab

Learn song with the online tabulature player
Artist: The Mad Capusule Markets
Song: Midi Surf
Album: OSC-DIS
Tabbed by Tom Hackett (FoRx) forx_net@hotmail.com
Tuning: Drop D

Intro

|----------------------------------------------|
|----------------------------------------------|
|----------------------------------------------|
|--0-0-1-0--0-1--0-1---------------------------|x2
|--0-0-1-0--0-1--0-1---------------------------|
|--0-0-1-0--0-1--0-1---------------------------|
then
|----------------------------------------------|
|----------------------------------------------|
|----------------------------------------------|
|--0-------------------------------------------|
|--0--(let ring)-------------------------------|
|--0-------------------------------------------|

Main Riff

|----------------|
|----------------|
|----------------|
|--0-1-0--0-3----| x3
|--0-1-0--0-3----|
|--0-1-0--0-3----|
then
|-----------------| On   |-----|
|-----------------| 2nd  |-----|
|-----------------| play |-----|
|--0-0-1-0-3-0-4--| only |--0--|
|--0-0-1-0-3-0-4--|      |--0--|
|--0-0-1-0-3-0-4--|      |--0--|

Chorus

|------------------------------------------------------|
|------------------------------------------------------|
|---------------5-5-5-5-5-5--7-7-7-7-7-7---------------|
|--3-3-3-3-3-3--5-5-5-5-5-5--7-7-7-7-7-7--8-8-8-8-8-8--|
|--3-3-3-3-3-3--3-3-3-3-3-3--5-5-5-5-5-5--8-8-8-8-8-8--|
|--3-3-3-3-3-3----------------------------8-8-8-8-8-8--|

Bridge (During bass solo)

|-----------------------|    Repeat        |-----|
|-----------------------|      as          |-----|
|-----------------------|    needed        |-----|
|-----------------------|                  |--0--| Let ring
|-----------------------|     End          |--0--|
|--0-0-0-0-0-0-0-0-0-0--|     on->         |--0--|
pm * * * * * * * * * *

Intro
Opens
Main Riff x4
Chorus x2
Main Riff x4
Opens
Main Riff x4
Chorus x2
Bridge (as needed)
Chorus x4
Main Riff x2
Opens (Let both ring)

Ok... Its fixed now