Madasun - Walking On Water Text Guitar Tab

Learn the song with the online tablature player
                             Walking On Water - Madasun

        Intro and Verse:
e|--------------------------------------------------|
B|--------11----------------------------------------|
G|-----11----11-p-10---10~----8-8-p-6---------------|
D|--11---------------11----------------8-6----------|
A|--------------------------------------------------|
E|------------------------------------------7~------|

        Intro and Verse:
   F#        C#                Eb       B
e|----------------------------------------------------|
B|----------------------------------------------------|
G|-----------6----6------------8---8----4---4---------|
D|-4---4-----6----6------------8---8----4---4---------|
A|-4---4-----4----4------------6---6----2---2---------|
E|-2---2----------------------------------------------|

          After Verse:
e|--------------------------------------------------|
B|--------------------------------------------------|
G|---4---------------6------------------------------|
D|---4-ring--4-------6-ring---4---------------------|
A|---2-------4-ring--4--------4-choke---------------|
E|-----------2----------------2---------------------|

CHORUS
e|--------------------------------------------------|
B|--------------------------------------------------|
G|-----------6--6-----8---8-----4---4---------------|
D|--4---4----6--6-----8---8-----4---4---------------|
A|--4---4----4--4-----6---6-----2---2---------------|
E|--2---2-------------------------------------------|

     Key:
| /  slide up
| \  slide down
| h  hammer-on
| p  pull-off
| ~  vibrato
| +  harmonic
| x  Mute note