Madder Mortem - To Kill And Kill Again Text Guitar Tab

Learn the song with the online tablature player
Here you have it,the intro for the song To Kill And Kill Again,
 taken from the album All Flesh Is Grass (2000)
I basically tab these Madder-tabs for their promotion, and part because I can't figure
the whole of their songs.
Listen to them, and you'll probably see why.
So, I apologize for alot of intros coming in the future,
but you might find them usefull anywho :)
Enjoy this tiny thang ^^

b|-----------------------------------------------------------------|
G|-----------------------------------------------------------------|
D|-----------------------------------------------------------------|
A|-----7-8-5~----------7-8-5~------------7-8-5~-----9~------9~-----|
E|--------------------------------------------------7~------7~-----|
B|--6~--------------6~---------------6~----------------------------|

b|-----------|
G|-----------|
D|-----------|
A|--8~----5~-|
E|--6~----3~-|
B|-----------|