Madness - Swan Lake Text Guitar Tab

Learn song with the online tabulature player
this better than the classicial version

this bit really meant to be on piano but sounds the same

-0------0-0-0-  -0-1-3-1-0--1-3-5-3-1-1-3-5-7-|
---0-1-3-3-3--  ------------------------------|
--2-----------x2------------------------------|x2
--------------  ------------------------------|
--------------  ------------------------------|
--------------  ------------------------------|

lead guitar
-------------------------|
-9-9-9-9-9-9-9-9-9-9-9-9-|
-0-0-0-0-0-0-0-0-0-0-0-0-|
-0-0-0-0-0-0-0-0-0-0-0-0-|
-7-7-7-7-7-7-7-7-7-7-7-7-|
-------------------------|

this goes on through the whole song

this is the bass bit

------------------------------       -1-3-1-1-3-5-3-1-1-3-5-7-|
-0------0-0-0-----------------       -------------------------|
---0-1-3-3-3------------------x2 then-------------------------|
------------------------------       -------------------------|