Madonna - I Love New York Live Text Guitar Tab

Learn the song with the online tablature player
I don't like cities
But I like New York
Other places make me feel like a dork
Los Angeles is for people who sleep
Paris and London

Baby you can keep (repeat)
e|-------------------------------------|
B|-------------------------------------|
G|-------------------------------------|
D|10-10-10-10-9-9-9-9-7-7-7-7-7-7-7-7--|
A|10-10-10-10-9-9-9-9-7-7-7-7-7-7-7-7--|
E|-8--8--8--8-7-7-7-7-5-5-5-5-5-5-5-5--|

(SLIDE UP)

Chorus
Other cities always make me mad
Other places always make me sad
No other city ever made me glad except New York
I love New York [X3]

e|-------------------------------------|
B|-------------------------------------|
G|-------------------------------------|
D|10-10-10-10-9-9-9-9-7-7-7-7-7-7-7-7--|
A|10-10-10-10-9-9-9-9-7-7-7-7-7-7-7-7--|
E|-8--8--8--8-7-7-7-7-5-5-5-5-5-5-5-5--|

I love New York

e|-5-|
B|-5-|
G|-6-|
D|-7-|
A|-7-|
E|-5-|

(SLIDE UP)

If you don't like my attitude
Then you can fuck off
Just go to Texas
Isn't that where they golf

e|-5-5-5----5-5-5-----5-5-5--|
B|-5-5-5----5-5-5-----5-5-5--|
G|-5-5-6----5-5-6-----5-5-6--|
D|-5-5-7----5-5-7-----5-5-7--|
A|-5-5-7----5-5-7-----5-5-7--|
E|-x-x-5----x-x-5-----x-x-5--|

New York is not for little pussies who scream
If you can't stand the heat

e|--------------------|
B|--------------------|
G|--------------------|
D|-7-7-7-7-7-7-7-7-7--|
A|-7-7-7-7-7-7-7-7-7--|
E|-5-5-5-5-5-5-5-5-5--|

Then get off my street [repeat]

e|-------------------------------------|
B|-------------------------------------|
G|-------------------------------------|
D|10-10-10-10-9-9-9-9-7-7-7-7-7-7-7-7--|
A|10-10-10-10-9-9-9-9-7-7-7-7-7-7-7-7--|
E|-8--8--8--8-7-7-7-7-5-5-5-5-5-5-5-5--|

(SLIDE UP)

Chorus

I love New York [repeat]
Get off my street [repeat]