Madredeus - Haja O Que Houver Text Guitar Tab

Learn the song with the online tablature player
Madredeus is a Portuguese group, with an internacional career.

        Madredeus - Haja o que Houver (Solo)

e|--12-11-9--12-11-9------9---------------|
B|-------------------12-9---12-9-9--------|
G|----------------------------------------|
D|----------------------------------------|
A|----------------------------------------|
E|----------------------------------------|

e|--12-11-9--12-11-9------9---------------|
B|-------------------12-9---12-9-9--------|
G|----------------------------------------|
D|----------------------------------------|
A|----------------------------------------|
E|----------------------------------------|

Any comments mail me

Aveiro, Portugal