Madrugada - Bloodshot Adult Commitment Text Guitar Tab

Learn the song with the online tablature player
Riff through the hole song:

e|--------------------------------and so on----|
B|--------------------------------.........----|
G|--------------------------------.........----|
D|-2h4-4-4-4-2h4-4-4-4-2h4-4-4-4--.........----|
A|-2---2-2-2-2---2-2-2-2---2-2-2--.........----|
E|--------------------------------.........----|

e|--------------------------and so on----------|
B|--------------------------.........----------|
G|-4-2-2-2-4-2-2-2-4-2-2-2--.........-4-2-2-2--|
D|-2-2-2-2-2-2-2-2-2-2-2-2--.........-2-2-2-2--|
A|--------------------------.........----------|
E|--------------------------.........----------|

e|---------------------------------------------|
B|-3-2-----------------------------------------|
G|-----4-2-------------------------------------|
D|---------2h4-4-4-4---------------------------|
A|---------2---2-2-2---------------------------|
E|---------------------------------------------|