Madrugada - Salt Text Guitar Tab

Learn the song with the online tablature player
Lyric borrowed from Madrugada.de :)

Intro

    Em                      Bm                           Em
e||------------------------------------------------------------|
B||---0-0-0-0----------3-3-3-3-3-3------3-3-3-3-3-3----------0-|
G||---0-0-0-0----------4-4-4-4-4-4------4-4-4-4-4-4--------0-0-|
D||---2-2-2-2--2-------4-4-4-4-4-4------4-4-4-4-4-4--------2-2-|
A||---2-2-2-2--2---0-2-2-2-2-2-2-2--0-2-2-2-2-2-2-2--------2-2-|
E||-0---0-0-0--0-------------------------------------3-2-0---0-|

Solo

e||---------------------------------------------------------|
B||---------------------------------------------------------|
G||---------------------------------------------------------|
D||-------------------141414-14-----------------------------|
A||-----------------------------14--------------------------|
E||-000---121212-12----------------15-14-14h15p14-----------|

e||---------------------------------------------------------|
B||---------------------------------------------------------|
G||---------------------------------------------------------|
D||---------------------------------------------------------|
A||----------------12-14-12---------------------------------|
E||-141414---14-15----------15-14-14h15p14------------------|

e||---------------------------------------------------------|
B||---------------------------------------------------------|
G||---------------------------------------------------------|
D||---------------------------------------------------------|
A||----------------12-14-12---------------------------------|
E||-141414---14-15----------15-14-12------------------------|

e||---------------------------------------------------------|
B||---------------------------------------------------------|
G||---------------------------------------------------------|
D||----------121212-12-12h14-14-14-141414-14----------------|
A||---------------------------------------------------------|
E||-121212--------------------------------------------------|

e||---------------------------------------------------------|
B||----------12h13-12h13-12-13-12---------------------------|
G||----11-12----------------------12-11---------------------|
D||-14------------------------------------------------------|
A||---------------------------------------------------------|
E||---------------------------------------------------------|

e||-151515-15-15-14-14-15-/17--15-14-12---------------------|
B||---------------------------------------------------------|
G||---------------------------------------12p11-h12---------|
D||----------------------------------------------------14---|
A||---------------------------------------------------------|
E||---------------------------------------------------------|

Song Progression:

Intro

Em Bm

Verse and chorus:

Em                         Bm
No life, no life without a fall
Now the wind has swept us all
                     Em
Down to this mission wall
                                      Bm
And the love, the love we pray to keep

Has buried us so deep
                              Em
And me singing this same sad song
                     Bm
How I fell into her arms

Her warm and loving arms
                             Em
She said, "You can never be free
                      Bm
You can never be like me"

Now I'm a mad dog and I'm mean
                        Am
Now you honey or my queen
                      Em
Let us sleep tomorrow
                    Bm
In the mellow wallow
                                Am
Oh, there's still time to borrow
                              Em  (Then back to Em and Bm)
And in the mellow wallow I shout

We will never have it all
Tonight I'm screaming at the wall
Peel the paint off with my ring
Such material has no choice
I peel the paint off with my voice
Curse this city's deep, black soul
Now I'm sleeping on the floor
Honey, I'm soaking wet and
Oh, they're coming now
They're coming now
They're coming for me
As long as we are free
We'll be doomed to live and die
Under the great suburban sky
And I'll always holler
In the mellow wallow
Oh, there's still time to borrow
And in the mellow wallow
Jesus

Solo

Head of heaven, head of hell
You are treating me quite well
Washed me up upon a shore
Now I'm scratching down your door
All the words become my hymns
Cold and broken on the floor
Peeling gooseflesh off your back
Pulling back your long, black hair
Now this beauty is my queen
Skinny arms so very slow
A perfume neck and a blanket of snow
Oh, what beauty, oh, what grace!

I will sleep tomorrow
And in the mellow wallow
Oh, there's still time to borrow
And in the mellow wallow
I had a fall to be a controller
Lost and swept away
I will always wait up
Won't you listen now
Let me sleep tomorrow away

We'll never have it all
Now the wind has swept us all
Down to this mission wall
And see, the rhythm is your hand
Speed the rhythm, speed the band
This is the bright amphetamine sky