Madrugada - Step Into This Room And Dance For Me Text Guitar Tab

Learn the song with the online tablature player
-------------------------------------------------|
----------------------Madrugada------------------|
-------------------------------------------------|

Song: Step into this room and dance for me

E-------------------------------------------------------|
B-------------------------------------------------------|
G-----------0----------------------------3--------------|
D-----1-----------1------1-----1-----------3------------|
A--3-----3-----3------3-----3-----3--1-------0----------|
E-----------------------------------------------1-------|

E-------------------------------------------------------|
B-------------------------------------------------------|
G-------------------------------------------------------|
D--3-----3-----3-----3-----3-----3-----3-----3----------|
A-----3-----------3-----------3-----------3-------------|
E-----------1-----------1-----------1-------------------|
                                             repeat...