Mads Langer - Death Has Fallen In Love Text Guitar Tab

Learn the song with the online tablature player
MADS LANGER - BEHOLD   ***DEATH HAS FALLEN IN LOVE***

Morten S.T.  2011

Intro

e------------------------------------------------------3-----------|
H--1----3-----5---0------------------------------h1--------0-------|
G----0-----0--------0-----0---0---0---0----0--------0----0---------|
D-----------------------0---0---0---0----0---0-0-------------------|
A--3----5-----7---------------0---2---3----3------3----3---0-------|
E-----------------3-------3----------------------------------------|

------------------3-----|
-----------h1-----------|
---0-----------0-----0--|
-0---0-0----------------|
---0-------3------3-----|
------------------------|

1. verse:

"yes     i   do    fear the   the  day   that  i     die"
--------------------------------------------------------------------3---|
-1------3-----5----0---------------------------------------------h1-----|
----0-----0------0---0--0---------0------0-----0-----0----0-------------|
------------------------------0-------0-----0-----0-----0---0-0---------|
-3------5-----7--------------------------0-----2-----3----3------3--3---|
-------------------3----3---------3-------------------------------------|

(same as before)

"Will you bring me water the day that my well runs dry?"

Chorus

"Life is so beautiful that death has fallen in love with it"

-------------------0---------------------------------------------------3-----|
--------------3-------3-------------------------------0----0------1--------0-|
-2-----2--------0-------2---2---2--------0-----0---2----0-----------0----0---|
---0-----0--------------------0------------0-----2---------------------------|
-----------------------------------------2---2--------------------3----3---3-|
-2---2--------2----2--------2-----2----------------2--2----3-----------------|

 "hu  hu  uh  uh"
-----------------0--------------------0------------------------------------|
-3---1---0---0-------------------3-----------------------------------------|
---0---0---0---0------2-----2-------0---2---2---2---2---0---0---2----4---4-|
-------------------0----0-----0-----------0---0---0---0---0---0---0----0---|
---------------------------------------------------------------------------|
-3---3---3---3---3----2---2------2----2-----2---2---2---3---3---3----3---4-|

-----3------------|
-h1------0--------|
----0--0----------|
------------------|
---------3--------|
-3---3------------|

Same as verse 1:

"Silence fall heavily on my shoulders
Grace and the goddness in the eye of the beholder"

Same as chorus 1:

"You are so beautiful and i have fallen in love with you"

Interlude

same as interlude 1:

"hu, hu, uh, uh"

"Yes i do fear the day taht you die
And i'll bring you water the day taht your well runs dry"

Chorus

"Life is so beautiful that death has fallen in love with it"

ends with a strum

--x-------|
--0-------|
--0-------|
--2-------|
--3-------|
----------|