Mae - Release Me Acoustic Text Guitar Tab

Learn the song with the online tablature player
This was tabbed using Dave's solo acoustic show for Invisible Children. The video can be
on youtube. This can be played along with the version on Singularity, as there are no
differences except for some lyrics here and there.

Intro
e|---4-------------------------------|
B|----5------------------------------|
G|-----6-----------------------------|
D|------6----------------------------|
A|-------4---------------------------|
E|-----------------------------------|

Verse 1
e|---0----0----0------------0--------|
B|---5----0----0------------0--------|
G|---6----3----2------------8--------|
D|---6----4----2----(x4)----9--------|
A|---4----4----0------------9--------|
E|--------2----0------------7--------|

Chorus
e|---0----0----0----0----------------|
B|---0----0----0----0----------------|
G|---9----9----9----9----------------|
D|---9----9----9----9----(x2)--------|
A|---7----0----x----0----------------|
E|-------------9---------------------|

Verse 2
e|---0----0----0------------0--------|
B|---5----0----0------------0--------|
G|---6----3----2------------8--------|
D|---6----4----2----(x4)----9--------|
A|---4----4----0------------9--------|
E|--------2----0------------7--------|

Chorus
e|---0----0----0----0----------------|
B|---0----0----0----0----------------|
G|---9----9----9----9----------------|
D|---9----9----9----9----(x2)--------|
A|---7----0----x----0----------------|
E|-------------9---------------------|

Bridge

e|---0----0--------------------------|
B|---0----0--------------------------|
G|---9----9--------------------------|
D|---9----9--------(x4)--------------|
A|---0----x--------------------------|
E|--------9--------------------------|

Repeat chorus twice

End on
e|----0------------------------------|
B|----0------------------------------|
G|----3------------------------------|
D|----4------------------------------|
A|----4------------------------------|
E|----2------------------------------|

| /  slide up
| \  slide down
| h  hammer-on
| p  pull-off
| ~  vibrato
| +  harmonic
| x  Mute note