Mael Mordha - Winds Of One Thousand Winters Text Guitar Tab

Learn the song with the online tablature player
Rhythm                   (play 2 times)
e|-----------------|----------------|---------------|----------------|-----------------|
B|-----------------|----------------|---------------|----------------|-----------------|
G|-----------------|8~--------------|8~-------------|-8~-------------|-10~-----5~------|
D|-5~--------------|8~--------------|8~-------------|-8~-------------|-10~-----3~------|
A|-3~--------------|6~--------------|5~-------------|-6~-------------|--8~-----3~------|
E|-3~--------------|----------------|---------------|----------------|-----------------|
                         (play on the third time through)
e|-----------------|----------------|---------------|----------------|-----------------|
B|-----------------|----------------|---------------|----------------|-----------------|
G|-----------------|8~--------------|8~-------------|8~--------------|-5~------5~------|
D|-5~--------------|8~--------------|8~-------------|8~--------------|-5~------3~------|
A|-3~--------------|6~--------------|5~-------------|6~--------------|-3~------3~------|
E|-3~--------------|----------------|---------------|----------------|-----------------|

Lead
(alternate pick on palm mutes)
e|-----(3-3)----(3-3-3)------(3-3)-----(3-3-3)------(3-3)-----(3-3-3)------------------|
B|---5--------6----------5-5---------6----------5-5--------6----------5----------------|
G|-------------------------------------------------------------------------------------|
D|-------------------------------------------------------------------------------------|
A|-------------------------------------------------------------------------------------|
E|-------------------------------------------------------------------------------------|
Rhythm
(alternate pick on palm mutes)
e|-----(3-3)----(3-3-3)------(3-3)-----(3-3-3)------(3-3)-----(3-3-3)------------------|
B|---5--------6----------5-5---------6----------5-5--------6----------5----------------|
G|-------------------------------------------------------------------------------------|
D|-------------------------------------------------------------------------------------|
A|-------------------------------------------------------------------------------------|
E|-------------------------------------------------------------------------------------|
Rhythm (lead takes a break)
e|---------------------------------------------------------------------------------------|
B|---------------------------------------------------------------------------------------|
G|-5~-----------5*-----------8~-----------10~-----------7~-------------------------------|
D|-5~-----------5*-----------8~-----------10~-----------7~-------------------------------|
A|-3~333333333--3*333333333--6~666666666--8~-888888888--5~777777777----------------------|
E|---------------------------------------------------------------------------------------|
     (Palm mute all the ones hooked together like this 333333333)
e|---------------------------------------------------------------------------------------|
B|---------------------------------------------------------------------------------------|
G|-5~-----------5*-----------8~-----------10-----------5~-----------5~-------------------|
D|-5~-----------5*-----------8~-----------10-----------5~-----------5~-------------------|
A|-3~333333333--3*333333333--6~666666666--8-888888888--3~333333333--3~333333333----------|
E|---------------------------------------------------------------------------------------|

(now there are some note movements in the bottom 2 riffs but i was having trouble
with the text editor and this is all i could fit so ill fix it later)

| /  slide up
| \  slide down
| h  hammer-on
| p  pull-off
| ~  let ring
| +  harmonic
| x  mute note
| *  choke note or chord