Magnum - All Englands Eyes Text Guitar Tab

Learn the song with the online tablature player
 XXXXXXXXXXXXXXXXXXXXXXXXXXXXXXXXXXXXXXXXXXXXXXXXXXXXXXXXXXXXXXXXXXXXXXXXXXXXXXXX
 Also, look at corrections of one chord in Endless love at bottom of tab. Thanks!
 XXXXXXXXXXXXXXXXXXXXXXXXXXXXXXXXXXXXXXXXXXXXXXXXXXXXXXXXXXXXXXXXXXXXXXXXXXXXXXXX

 All Englands eye:

  Gtr I

|----------------------------------|
|----------------------------------|
|---------------2-7-5-4--2-7-4-2---|
|---------------2-7-5-5--2-7-5-2---|
|---------------0-0-0-0--0-0-0-0---|
|---0-0-3b-p0----------------------|

  Gtr I

|------------------|
|------------------|
|-------------2----|
|-------------2----|
|-------------0----|
|-0-0-3b-p0--------|

|---------------------|
|---------------------|
|--2-7-5-4--2-7-4-2---|
|--2-7-5-5--2-7-5-2---|
|--0-0-0-0--0-0-0-0---|
|---------------------|

 I must saken another heart......

  Gtr I

|------------------|
|------------------|
|-------------2----|
|-------------2----|
|-------------0----|
|-0-0-3b-p0--------|

|---------------------|
|---------------------|
|--2-7-5-4--2-7-4-2---|
|--2-7-5-5--2-7-5-2---|
|--0-0-0-0--0-0-0-0---|
|---------------------|

 Someone wake'n another heart.....

  Gtr I

|---------------------|
|---------------------|
|--2-7-5-4--2-7-4-2---|
|--2-7-5-5--2-7-5-2---|
|--0-0-0-0--0-0-0-0---|
|---------------------|

|------------------|
|------------------|
|-------------2----|
|-------------2----|
|-------------0----|
|-0-0-3b-p0--------|

  Gtr I

    (x)
|-------------------------------------------|
|-------------------------------------------|
|--5-7-0-2--5-7-0-2-------------------------|
|--5-7-0-2--5-7-0-2-5--3-----3-3-3-3-3-5----|
|--0-0---0--0-0---0-5--3-----3-3-3-3-3-5----|
|-------------------------------------------|

 All Englands eyes, turn black and she cry.....

 note: (x) means that you should let the open string in chord (0,7,7) to continue sound into (0,0 chord).

  Gtr I

|---------------------|
|---------------------|
|--2-7-5-4--2-7-4-2---|
|--2-7-5-5--2-7-5-2---|
|--0-0-0-0--0-0-0-0---|
|---------------------|

  Gtr I

|------------------|
|------------------|
|-------------2----|
|-------------2----|
|-------------0----|
|-0-0-3b-p0--------|

 Sending over another heart.....

  Gtr I

|---------------------|
|---------------------|
|--2-7-5-4--2-7-4-2---|
|--2-7-5-5--2-7-5-2---|
|--0-0-0-0--0-0-0-0---|
|---------------------|

  Gtr I

|------------------|
|------------------|
|-------------2----|
|-------------2----|
|-------------0----|
|-0-0-3b-p0--------|

 And the nabless, the sacred heart......

  Gtr I

|---------------------|
|---------------------|
|--2-7-5-4--2-7-4-2---|
|--2-7-5-5--2-7-5-2---|
|--0-0-0-0--0-0-0-0---|
|---------------------|

  Gtr I

|------------------|
|------------------|
|-------------2----|
|-------------2----|
|-------------0----|
|-0-0-3b-p0--------|

  Gtr I

    (x)
|-------------------------------------------|
|-------------------------------------------|
|--5-7-0-2--5-7-0-2-------------------------|
|--5-7-0-2--5-7-0-2-5--3-----3-3-3-3-3-5----|
|--0-0---0--0-0---0-5--3-----3-3-3-3-3-5----|
|-------------------------------------------|

 All Englands eyes, turn black and she cries

 note: (x) means that you should let the open string in chord (0,7,7) to continue sound into (0,0 chord).

  Gtr I

|------------------|
|------------------|
|-5-5-7-7-----2----|
|-5-5-7-7-5-5-2----|
|-0-0-0-0-5-5-0----|
|------------------|

  Gtr I

    (x)
|-------------------------------------------|
|-------------------------------------------|
|--5-7-0-2--5-7-0-2-------------------------|
|--5-7-0-2--5-7-0-2-5--3-----3-3-3-3-3-5----|
|--0-0---0--0-0---0-5--3-----3-3-3-3-3-5----|
|-------------------------------------------|

 Same as before - but muted play and doubled (a bit sticky played).

  Gtr I

|------------------|
|------------------|
|-------------2----|
|-------------2----|
|-------------0----|
|-0-0-3b-p0--------|

  Gtr I

    (x)
|-------------------------------------------|
|-------------------------------------------|
|--5-7-0-2--5-7-0-2-------------------------|
|--5-7-0-2--5-7-0-2-5--3-----3-3-3-3-3-5----|
|--0-0---0--0-0---0-5--3-----3-3-3-3-3-5----|
|-------------------------------------------|

 All Englands eyes, turn black and she cries

 note: (x) means that you should let the open string in chord (0,7,7) to continue sound into (0,0 chord).

  Gtr I

|----------------|
|----------------|
|----------------|
|----------------|
|---3-----5------|
|-1---1-3---3----|

  Gtr I

    (x)
|-------------------------------------------|
|-------------------------------------------|
|--5-7-0-2--5-7-0-2-------------------------|
|--5-7-0-2--5-7-0-2-5--3-----3-3-3-3-3-5----|
|--0-0---0--0-0---0-5--3-----3-3-3-3-3-5----|
|-------------------------------------------|

 All Englands eyes, turn black and she cries

 note: (x) means that you should let the open string in chord (0,7,7) to continue sound into (0,0 chord).

  Gtr I

|----------------|
|----------------|
|----------------|
|----------------|
|---3-----5------|
|-1---1-3---3----|

 Last 4 chords i leave to you to figure out :) You have played it before.

 Bye.

 CORRECTION from ealier tab made by mEeK:

 No endless love can't find no endless
 No endless love can't find no endless love tonight
 No endless love can't find no endless love

  Gtr I

|-----------------------------------------------|
|-----------------------------------------------|
|-5-5-3------3-----------------5-3-----3-3-5----|
|-5-5-3--6-6-3---5-3---3-5-3---5-3-6-6-3-3-5----|
|-3-3-1--6-6---------6-------6-3-1-6-6----------|
|-----------------------------------------------|

 Here ------>