Magtens Korridorer - Sara Har Text Guitar Tab

Learn song with the online tabulature player
Band: Magtens Korridorer

Sang: Sara Har

Album: Friværdi

Tabbet af Kristian Græse Edelbo.

Intro/Vers riff:

G:-----11---9-11----------11---9-11------|
D:-0-0----0-------0-0-0-0----0-------0-0-|
A:---------------------------------------|
E:---------------------------------------|

G:----------------------------------------|
D:-----11---9-11----------11---9-11-------|
A:-0-0----0-------0-0-0-0----0--------0-0-|
E:----------------------------------------|  x8

Omkvæd:

G:-----------------|
D:-----------------|
A:-------2-x8-5-x8-|
E:-2-x16-----------|    x2

Vers 2:

Intro/Vers riff x3

Omkvæd x3

Overgang til bridge:

G:----------|
D:----------|
A:-2-x8-5x8-|
E:----------|

Brigde:

G:-----------------|
D:-----------------|
A:-0-x16-2-x8-5-x8-|
E:-----------------| x2

G:----------------------------------------|
D:----------------------------------------|
A:-0-x16-2-x8-5-5--5-5--5-5---------------|
E:--------------------------2-2-2-0-0-0-0-|


Intro Verse Riff x1

G:-----11---9-11---------11-11-9-11------|
D:-0-0----0-------0-0-0-0------------0-0-|
A:---------------------------------------|
E:---------------------------------------|

G:---------------------------------------|
D:-11------------------------------------|
A:-0~------------------------------------|
E:---------------------------------------|

Omkvæd x3

SLUT : D