Magtens Korridorer - Vesterbro Text Guitar Tab

Learn the song with the online tablature player
intro
riff/verse

e/-------------|
B/-------------|
G/-------------|
D/-------------|
A/-9-9-9-8-9-x-|
E/-7-7-7-7-7-x-|

sometimes appears between the mainriffs. (with some variation)
E/5s7-7b9r7-5

chorus

e/-----
B/-----
G/-----
D/-9--7
A/-9--7
E/-7--5

solo

e/---------------------------|
B/---------------------------|
G/---------------------------|
D/--7-9---7-9--7-9b10r9-7-7--|
A/-9-----9----9----------9---|
E/-------------------------x-|some times

-- viggo