Mahavishnu Orchestra - You Know You Know Text Guitar Tab

Learn the song with the online tablature player
             You Know , You Know - Mahavishnu Orchestra

here is a mahavishnu classic from the 1971 album (the inner mounting flame)
the album that introduced the world to the heavy fusion of the band.

please rate !!!!!

Gtr-1 - Slight Overdrive

Gtr-1

|----------------------------||---------||----------------------------|
|---------3--------2---------||---------||---------3--------2---------|
|------0---------------------||---------||------0---------------------|
|------4--------2------------||---------||------4--------2------------|
|---2--------0---------------||---------||---2--------0---------------|
|---------------------0--3---||---0-----||---------------------0--3---|

|---------||----------------------------||---------||-----------------|
|---------||---------3--------2---------||---------||---------3-------|
|---------||------0---------------------||---------||------0----------|
|---------||------4--------2------------||---------||------4--------2-|
|---------||---2--------0---------------||---------||---2--------0----|
|---0-----||---------------------0--3---||---0-----||-----------------|

|-----------||---------||----------------------------||---------||-----|
|-2---------||---------||---------3--------2---------||---------||-----|
|-----------||---------||------0---------------------||---------||-----|
|-----------||---------||------4--------2------------||---------||-----|
|-----------||---------||---2--------0---------------||---------||---2-|
|----0--3---||---0-----||---------------------0--3---||---0-----||-----|

|-----------------------||---------||----------------------------||-------|
|----3--------2---------||---------||---------3--------2---------||-------|
|-0---------------------||---------||------0---------------------||-------|
|-4--------2------------||---------||------4--------2------------||-------|
|-------0---------------||---------||---2--------0---------------||-------|
|----------------0--3---||---0-----||---------------------0--3---||---0---|

|----------------------------||---------||----------------------------|
|---------3--------2---------||---------||---------3--------2---------|
|------0---------------------||---------||------0---------------------|
|------4--------2------------||---------||------4--------2------------|
|---2--------0---------------||---------||---2--------0---------------|
|---------------------0--3---||---0-----||---------------------0--3---|

|---------||----------------------------||---------||-----------------|
|---------||---------3--------2---------||---------||---------3-------|
|---------||------0---------------------||---------||------0----------|
|---------||------4--------2------------||---------||------4--------2-|
|---------||---2--------0---------------||---------||---2--------0----|
|---0-----||---------------------0--3---||---0-----||-----------------|

|-----------||---------||----------------------------||---------||-----|
|-2---------||---------||---------3--------2---------||---------||-----|
|-----------||---------||------0---------------------||---------||-----|
|-----------||---------||------4--------2------------||---------||-----|
|-----------||---------||---2--------0---------------||---------||---2-|
|----0--3---||---0-----||---------------------0--3---||---0-----||-----|

|-----------------------||-------||---0---||----------------------------|
|----3--------2---------||-------||---0---||---------3--------2---------|
|-0---------------------||-------||---0---||------0---------------------|
|-4--------2------------||-------||---4---||------4--------2------------|
|-------0---------------||-------||-------||---2--------0---------------|
|----------------0--3---||---0---||-------||---------------------0--3---|

|---------||----------------------------||---------||-----------------|
|---------||---------3--------2---------||---------||---------3-------|
|---------||------0---------------------||---------||------0----------|
|---------||------4--------2------------||---------||------4--------2-|
|---------||---2--------0---------------||---------||---2--------0----|
|---0-----||---------------------0--3---||---0-----||-----------------|

|-----------||-------|--||----------------------------||---------||-----|
|-2---------||-------|--||---------3--------2---------||---------||-----|
|-----------||-------|--||------0---------------------||---------||-----|
|-----------||-------|--||------4--------2------------||---------||---2-|
|-----------||-------|--||---2--------0---------------||---------||-----|
|----0--3---||---0---|--||---------------------0--3---||---0-----||-----|

|----3--------2---------||---------------------------||---0---------||-----|
|-0---------------------||---3--------2--------------||---0---------||---3-|
|-5--5-----2--------0---||---------------------------||---0-----0---||-----|
|-------0-----------4---||---------2-----------------||---4-----4---||-----|
|----------------2------||------0--------------------||------2------||-----|
|-----------------------||---------------0--3--0-----||-------------||-----|

|--------------------|--||---0--0---------||-------------------------|--|
|-------2------------|--||---0--0---------||---3--------2------------|--|
|--------------------|--||---0--0--0--0---||-------------------------|--|
|----2---------------|--||---2--2-----4---||---------2---------------|--|
|-0------------------|--||------------2---||------0------------------|--|
|----------0--3--0---|--||----------------||---------------0--3--0---|--|

|---0--0--0--0--10--||------12-10-9--7--5--3--2---||---3--5--7--5--3--2-|
|---0--0--0---------||---12-----------------------||--------------------|
|---0--0--0---------||----------------------------||--------------------|
|---2--2--2---------||----------------------------||--------------------|
|-------------------||----------------------------||--------------------|
|-------------------||----------------------------||--------------------|

|-3--2--3--2--3--2--3--2--3--2--3--2--3--2--3--2--3---||---2--3--2--3--2-|
|-----------------------------------------------------||-----------------|
|-----------------------------------------------------||-----------------|
|-----------------------------------------------------||-----------------|
|-----------------------------------------------------||-----------------|
|-----------------------------------------------------||-----------------|

|-3--2--3--2--3--2--3--2--3--2--3--2--3--2--3--2--3--2--3---||---2--3--2-|
|-----------------------------------------------------------||-----------|
|-----------------------------------------------------------||-----------|
|-----------------------------------------------------------||-----------|
|-----------------------------------------------------------||-----------|
|-----------------------------------------------------------||-----------|

|-3--2--3--2--3--2---------------||-------------------|--||----------------|
|-------------------------3------||------2------------|--||---------3------|
|----------------------0---------||-------------------|--||------0---------|
|----------------------4---------||---2---------------|--||------4---------|
|-------------------2--2-----0---||-------------------|--||---2--------0---|
|--------------------------------||---------0--3--0---|--||----------------|

|---------------------||----------------||---------------------||-----|
|------2--------------||---------3------||------2--------------||-----|
|---------------------||------0---------||---------------------||-----|
|---2-----------------||------4---------||---2-----------------||-----|
|---------------------||---2--------0---||---------------------||---2-|
|---------0--3--0-----||----------------||---------0--3--0-----||-----|

|-----------||-------------------|--||----------------||-------------------|
|----3------||------2------------|--||---------3------||------2------------|
|-0---------||-------------------|--||------0---------||-------------------|
|-4---------||---2---------------|--||------4---------||---2---------------|
|-------0---||-------------------|--||---2--------0---||-------------------|
|-----------||---------0--3--0---|--||----------------||---------0--3--0---|

|----------------||-------------------|--||---7---||---12-10-9--7--5--3-|
|---------3------||------2------------|--||-------||--------------------|
|------0---------||-------------------|--||-------||--------------------|
|------4---------||---2---------------|--||-------||--------------------|
|---2--------0---||-------------------|--||-------||--------------------|
|----------------||---------0--3--0---|--||-------||--------------------|

|-2--3--5--7--5--3---||---2--3--2--3--2--3--2--3--2--3--2--3--2--3--2--3-|
|--------------------||--------------------------------------------------|
|--------------------||--------------------------------------------------|
|--------------------||--------------------------------------------------|
|--------------------||--------------------------------------------------|
|--------------------||--------------------------------------------------|

|-2--3--2--3--2--3--2--3--||----2--3--2--3--2--3--2--3--2--3--2--3--2--3-|
|-------------------------||---------------------------------------------|
|-------------------------||---------------------------------------------|
|-------------------------||---------------------------------------------|
|-------------------------||---------------------------------------------|
|-------------------------||---------------------------------------------|

|-2--3--2--3--2--3--2---|
|-----------------------|
|-----------------------|
|-----------------------|
|-----------------------|
|-----------------------|

enjoy the orchestra !!!!!