Mahavisnu Orchestra - Birds Of Fire Text Guitar Tab

Learn the song with the online tablature player
Birds Of Fire:

-----------0---------0---------0--------------------------------------|
-------0---------0---------0------------------------------------------|
---------5---------5---------5----------------------------------------|
-----4---------4---------4--------------------------------------------|
----------------------------------------------------------------------|
---4---------4---------4---------6-7-0--------------------------------|

-----------0---------0---------0--------------------------------------|
-------0---------0---------0------------------------------------------|
---------7---------7---------7----------------------------------------|
-----6---------6---------6--------------------------------------------|
----------------------------------------------------------------------|
---6---------6---------6---------6-7-0--------------------------------|

----------------------------------------------------------------------|
----------------------------------------------------------------------|
----------------------------------------------------------------------|
--6--6--4----6--6--4---4-6--8--8--6----8--8--6---6-8------------------|
----------6----------6--------------8----------8----------------------|
----------------------------------------------------------------------|

-----------12---------15(b17)--12---------------12--------------------|
---15(b17)-----15-12--------------15-12-15(b17)-----15-12-------------|
----------------------------------------------------------------------|
----------------------------------------------------------------------|
----------------------------------------------------------------------|
----------------------------------------------------------------------|

----------------------------------------------------------------------|
----------------------------------------------10(b12)-10-8------------|
---14(b16)-14p12----12--------9-7---7-9--7-9---------------9-7-----7--|
-----------------14---------------9----------------------------7-9----|
----------------------------------------------------------------------|
----------------------------------------------------------------------|

Hope:

---------1--------------------3-------3-------------6-----------------|
-------2--------4-----3-----3-------4-------------6-------------------|
-----1--------3-----------1-------3-----------------------------------|
--------------------5---------------------------6---------------------|
--------------------------------0-------0-1-2-3-----------------------|
---1--------3-----4-----0---------------------------------------------|

-----------3---------4---------6--------------------------------------|
---------4---------5---------7----------------------------------------|
-------3---------4---------6------------------------------------------|
----------------------------------------------------------------------|
---3-4-------4-6-------6-7--------------------------------------------|
----------------------------------------------------------------------|