Maj Karma - Yn Pimeydess Text Guitar Tab

Learn song with the online tabulature player
e|--------------------|
B|--------------------|
G|-----8----7---------|
D|8----6----5----7----|
A|6----6----5----5----|
D|-----6----5---------| x3

4th time
e|--------------------|
B|--------------------|
G|-----8--------------|
D|8----6--------------|
A|6----6--------------|
D|-----6--------------|