Major League - Baltimore Text Guitar Tab

Learn the song with the online tablature player
                                                   Baltimore - Major League

Intro
one chord played repeatedly until verse)
e|---------------------------------------------------------------------------|
B|---------------------------------------------------------------------------|
G|-----6---------------------------------------------------------------------|
D|-----x---------------------------------------------------------------------|
A|-----4---------------------------------------------------------------------|
E|---------------------------------------------------------------------------|

Verse
x3)
e|------------------------------|--------------------------------------------|
B|------------------------------|--------------------------------------------|
G|---13-13-13-888\101010-666\888|---101010-888-------------------------------|
D|----x--x--x-xxx\x-x-x--xxx\xxx|----x-x-x-xxx-------------------------------|
A|---11-11-11-666\8-8-8--444\666|----8-8-8-666-------------------------------|
E|------------------------------|--------------------------------------------|
            (x3)                      (on the third time playing)

Chorus
x2)
e|---------------------------------------------------------------------------|
B|---------------------------------------------------------------------------|
G|---6-----8-----10-----6----5----6----8-------------------------------------|
D|---x-----x------x-----x----x----x----x-------------------------------------|
A|---4-----6------8-----4----3----4----6-------------------------------------|
E|---------------------------------------------------------------------------|
        (figure out strumming pattern)

Bridge
e|---------------------------------------------------------------------------|
B|---------------------------------------------------------------------------|
G|---13--10---8--8\10\8---6---5---6---8--------------------------------------|
D|----x---x---x--x\x-\x---x---x---x---x--------------------------------------|
A|---11---8---6--6\8-\6---4---3---4---6--------------------------------------|
E|---------------------------------------------------------------------------|
  (On the second time Taylor sings "Just to see if it makes a difference")

Outro
x2)
e|-------------------------------------------------|-------------------------|
B|-------------------------------------------------|-------------------------|
G|-----------------------------6---5---6---8-------|end on-----6-------------|
D|--44--44--4\6---44--44--4\6--x---x---x---x-------|-----------x-------------|
A|--44--44--4\6---44--44--4\6--4---3---4---6-------|-----------4-------------|
E|--22--22--2\4---22--22--2\4----------------------|-------------------------|
    (these Chords are more )                            (on second time)
    (than most likely wrong)

Play through:

Intro
Verse
Chorus

Verse
played once)
Intro
Verse
Chorus
Bridge
Chorus
Outro