Major League - Seasons Text Guitar Tab

Learn the song with the online tablature player
Seasons - Major League

Figure out the strumming pattern for yourself, it isn't difficult.

Intro/Chorus
D#|-------------------------xxxx------------------------xxxx-------------------------|
A#|--2--------2-------------xxxx--2-------2-------------xxxx-------------------------|
F#|--3--------3-------------xxxx--3-------3-------------xxxx-------------------------|
C#|--x--------0------5------xxxx--x-------0------5------xxxx-4------5------4------5--|
G#|--x--------0------5------xxxx--x-------0------5------xxxx-4------5------4------5--|
C#|--x--------3------7------xxxx--x-------3------7------xxxx-2------7------2------7--|
                                                                               end on

Verse
D#|-|-----------|-(x2)-xxxx----------------------------------------------------------|
A#|-|7-------7--|------xxxx----10----9-----7-----------------------------------------|
F#|-|7-------7--|------xxxx----x-----x-----x-----------------------------------------|
C#|-|5-------5--|------xxxx----9-----7-----5-----4-\-5-------------------------------|
G#|-|5-------5--|------xxxx----9-----7-----5-----4-\-5-------------------------------|
C#|-|--------5--|------xxxx----------------------------------------------------------|

Chorus

Verse

Bridge
E#|----------------------------------------------------------------------------------|
A#|--3------5-------7------10-----9-----7--------5--7--5-----------------------------|
F#|--x------x-------x------x------x-----x-------7--------7---------------------------|
C#|--x------x-------x------9------7-----5--------------------------------------------|
G#|--x------x-------x------9------7-----5--------------------------------------------|
C#|--2------5-------5----------------------------------------------------------------|

Chourus

Ending
D#|----------------------------------------------------------------------------------|
A#|----10------9------7--------------------------------------------------------------|
F#|----x-------x------x--------------------------------------------------------------|
C#|----9-------7------5--------------------------------------------------------------|
G#|----9-------7------5--------------------------------------------------------------|
C#|----------------------------------------------------------------------------------|