Make Me Famous - Its Now Or Never Text Guitar Tab

Learn the song with the online tablature player
  0:24                0:32
D|-FEEDBACK-------------------------------------------------------|
A|----------------------------------------------------------------|
F|--------------------7-------------------------------------------|
C|--------------------x-----------------------0-------------------|
G|--------------------5-----------------------0-------------------|
C|-------------------------------/PICKSLIDE/--0-------------------|

D|-------|
A|-------|
F|-------|
C|-------|
G|-------|
C|-00000-|

D|-------------------------------|
A|-------------------------------|
F|-------------------------------|
C|-------------------------------|(x4)
G|-------------------------------|
C|-00000--00000--000-0-000-0-000-|
   *****  *****  *** * *** * ***
D|-------------------------------|
A|-------------------------------|
F|-------------------------------|
C|-------------------------------|(x2)
G|-------------------------------|
C|-00000--00000--000-0-000-0-000-|
   *****  *****  *** * *** * ***
D|-------------------------------|
A|-------------------------------|
F|-------------------------------|
C|-------------------------------|(x2)
G|-------------------------------|
C|-00000--00000--000-0-000-0-000-|
   *****  *****  *** * *** * ***
D|---------------|
A|---------------|
F|---------------|
C|-0-------------|
G|-0-------------|
C|-0-------------|

Feel free to rate and comment