Make Your Stand - Better Off Dead Text Guitar Tab

Learn song with the online tabulature player
This took me about 20 min.
But I think I just about nailed it...

www.makeyourstand.com  (The Bands Website)

                       MAKE YOUR STAND
                          BETTER OFF DEAD

|----------------------------------------------------------|
|----------------------------------------------------------|
|----------------------------------------------------------|
|----------0----------0----------0-------------------------|
|---0-0----0----0-0---0----0-0---0----0-0------------------|
|---0-0----0----0-0---0----0-0---0----0-0------------------|
Pm  ***         ***        ***        ***

GUITAR 1
|----------------------------------------------------------   --|
|----------------------------------------------------------     |
|----------------------------------------------------------     |
|----7---7--h9--9--7--5--4-----10--9-----------------------     |
|----7---7--h9--------------5------------------------------     |
|----------------------------------------------------------     |
                                                                |
                                                                | x4
                                                                |
|----------------------------------------------------------     |
|----------------------------------------------------------     |
|--------------------------5/7--9--5-----------------------     |
|----7--7--h9--9--7--5--4----------------------------------     |
|----7--7--h9----------------------------------------------     |
|----------------------------------------------------------   --|