Male Bonding - Years Not Long Text Guitar Tab

Learn the song with the online tablature player
Intro
(the strumming is super fast, so just listen to it to figure out the pattern)

e-----------------|
B-----------------|
G--5-5-----5-5----|
D--5-5-7-7-5-5-7--|  x4
A--7-7-7-7-7-7-7--|
D------7-7-----7--|

Verse
(slightly altered version of the intro, again just listen to it)

i haven't quite figured out the bridge part yet

the rest of the song after the bridge is

e---------------|
B---------------|
G-9-11-13-14-16-|
D-9-11-13-14-16-|
A-7-9--11-12-14-|
D---------------|