Malevolent Creation - Compulsive Text Guitar Tab

Learn the song with the online tablature player
Compuslive
By Malevolent Creation
Tab By Neil Blevins
Album: In Cold Blood

Simple song, but that first riff is just as heavy as fuck and worth playing
over and over again. Only bottom four strings are tabbed for simplicities
sake. I've also omitted several "punches" by the second guitar during key
sections of the song, but since they follow the 1st guitar's pattern, it
should be obvious what they are.

A

|-----------------------------------------|
|-----------------------------------------|
|----3-3---------3-------3-3---------3----|
|-0001-1-00-0000-1000-0001-1-00-0000-1----|
  ...    .. ....  ... ...    .. ....

|-----------------------------------------|
|-----------------------------------------|
|----3-3---------3-------3-3---------3-55-|
|-0001-1-00-0000-1000-0001-1-00-0000-1-33-|
  ...    .. ....  ... ...    .. ....

A

|----------------------------------------|
|----------------------------------------|
|----3-3---------3-------3-3---------3-4-|
|-0001-1-00-0000-1000-0001-1-00-0000-1-2-|
  ...    .. ....  ... ...    .. ....

|-----------------------------------------|
|-----------------------------------------|
|----3-3---------3-------3-3---------3-55-|
|-0001-1-00-0000-1000-0001-1-00-0000-1-33-|
  ...    .. ....  ... ...    .. ....

B

|-----------------------------------------|
|-----------------------------------------|
|-----------------------------------------|
|-3333-3333-3333-3333-1111-1111-3333-4444-|

Repeat A (1x)
Repeat A' (1x)

C

|---------------|--------------------|
|---------------|--------------------|
|-----------3-5-|----------------4---|
|-1234-1234-1-3-|-1234-1234-1234-2---|
  .... ....       .... .... ....

C

|--------------------|--------------------|
|--------------------|--------------------|
|----------------3-5-|----------------4---|
|-1234-1234-1234-1-3-|-1234-1234-1234-2---|
  .... .... ....       .... .... ....

D

|-------------------|
|-------------------|
|----------------6--|
|-3131-3131-3131-4--|
  .... .... ....

E

|-------------------|
|-------------------|
|-----------5-6-3-5-|
|-3131-3131-3-4-1-3-|
  .... ....

F

|---------------------|-------------------------|
|---------------------|-------------------------|
|---------------------|-------------------------|
|-3131-3131-3131-3131-|-3131-3131-3131-22222222-|
  .... .... .... ....   .... .... .... ........

Repeat E (4x)

Fill 1

|---------|
|---------|
|-4-------|
|-2-------|

Repeat A (2x)
Repeat A' (2x)
Repeat B (8x)

Fill 2

|---------|
|---------|
|----3-3--|
|-0001-1--|
  ...