Malodorous - Profligate Fortitude Text Guitar Tab

Learn the song with the online tablature player
|------------------------|     |---------------------------------|
|------------------------|     |---------------------------------|
|------------------------|4x   |---------------------------------|13x
|-------------------1-4--|     |---------------------------------|
|-0--1--4-0--0-4-0--1-4--|     |---------------------000-555-000-|
|-0--1--4-0--0-4-0--1-4--|     |-888-000-111-333-000-------------|

  .  .  . .  . . .  . .

|------------------------|     |-----------------------|
|------------------------|     |-----------------------|
|------------------------|4x   |-----------------------| REPEAT UNTIL SONG ENDS
|-------------------1-4--|     |-------------------1-3-|
|-0--1--4-0--0-1-0--1-4--|     |-0--1--2-0--0-2-0--1-3-|
|-0--1--4-0--0-1-0--1-4--|     |-0--1--2-0--0-2-0--1-3-|
  .  .  . .  . . .  . .          .  .  . .  . . .  . .