Mammal - Aural Underground Text Guitar Tab

Learn the song with the online tablature player
riff 1

e|------------------------------------------|
B|------------------------------------------|
G|--7h9-9-7-----7h9-9-7----7h9-9-7----9b----|
D|----------9-----------9----------9--------|
A|------------------------------------------|
E|------------------------------------------| repeatx2

e|------------------------------------------|
B|------------------------------------------|
G|-9----9---9--10-9p7-----------------------|
D|-9----9---9-------9-----------------------|
A|-7-xx-7-x-7-------------------------------|
E|------------------------------------------| repeatx2