Man On Earth - Grow Text Guitar Tab

Learn song with the online tabulature player
hey this is my first tab thingy

guitar 2
e|----------------------8----------------------|
B|-----10--12---10---------12------------------|
G|---12-------12--12-12------------------------|
D|---------------------------------------------| X6 i think
A|---------------------------------------------|
E|---------------------------------------------|

guitar 1
chords
C , AM , EM

CHORUS
e|----------------------------------|
B|----------------------------------|
G|--5-55-XXXX-------------9-99999---|
D|--5-55-XXXX--7-77-xxxx--9-99999---| x 4
A|--3-33-XXXX--7-77-xxxx--7-77777---|
E|-------------5-55-xxxx------------|


ok it goes

intro( verse)

chorus

verse

chorus

verse

solo dont have it yet sorry

verse

chorus

then end with the verse thats it ok