Man Or Astro-Man - Classified Text Guitar Tab

Learn the song with the online tablature player
(CLASSIFIED) - by Man...or Astro-man? from the album

|-------------------------------------------------------------|
|-------------------------------------------------------------|
|-4-4-4----4-4-4----4-4-4----4-4-4----------------------------|
|-4-4-4-3--4-4-4-3--4-4-4-2--4-4-4-2--------------------------|
|-2-2-2-3--2-2-2-3--2-2-2-2--2-2-2-2--------------------------|
|-------1--------1--------0--------0--------------------------|

|------------------------------------------------------------------|
|------------------------------------------------------------------|
|------------------------------------------------------------------|
|---------5-4------------------------------5-4---------------------|
|-----5--------5-----------------------5--------5------------------|
|-7-7---7--------/3-3-3-3-3-3-3-3--7-7---7--------/5-5-5-5-5-5-5-5-|

|-------------------------------------------------------------|
|-------------------------------------------------------------|
|-------------------------------------------------4--4--4-4---|
|---------5-4-------------------------------------4--4--4-4---|
|-----5--------5----------------------------------2--2--2-2---|
|-7-7---7--------/2-2-2-2-2-2-2-2-3-2-2-3-2-2-3-2-------------|

|-------------------------------------------------------------|
|-------------------------------------------------------------|
|-------------------------------------------------------------|
|-/16--16-16-16--16-16-16-----14-14--14-14-14--14-14-14-------|
|-------------------------14\---------------------------12\---|
|-------------------------------------------------------------|

|-------------------------------------------------------------|
|-------------------------------------------------------------|
|-------------------------------------------------------------|
|-12-12--12-12-12--12-12-12-----10-----10----10---------------|
|---------------------------10\-----9------9------------------|
|-------------------------------------------------------------|

|-----------------------------------------7---7---7-7---------|
|-----------------------------------------7---7---7-7---------|
|-----------------------------------------7---7---7-7---------|
|-10----10-10-9-----------------------------------------------|
|-9-----9--9--9-----------------------------------------------|
|-7-----7--7--7---10\-/7-7-7-7-7-7-7-7...---------------------|

Outro

|-----------------------------------------------------------------|
|-----------------------------------------------------------------|
|-----------------------------------------------------------------|
|-----------------------------------------------------------------|
|-------------------------------------------------3-3-3-3-3-3-3-3-|
|-0-0-0-0-0-0-0-0-1-1-1-1-1-1-1-1-2-2-2-2-2-2-2-2-----------------|

|-----------------------------------------------------------------|
|-----------------------------------------------------------------|
|-----------------------------------------------------------------|
|-----------------------------------------------------------------|
|-------------------------------------------------2-2-2-2-2-2-2-2-|
|-0-0-0-0-0-0-0-0-1-1-1-1-1-1-1-1-2-2-2-2-2-2-2-2-----------------|

|---------------------------------191919191919191919....1919191919\-|
|-----------------1616161616161616----------------------------------|
|-------------------------------------------------------------------|
|-1414141414141414--------------------------------------------------|
|-------------------------------------------------------------------|
|-------------------------------------------------------------------|