Man Or Astro-Man - Configuration 9 Text Guitar Tab

Learn the song with the online tablature player
CONFIGURATION 9 - by Man...or Astro-man? from the Deluxe Men

|-0-0-0-0-0-0-0-0-0-0-0-0-0-0-0-0-0-0-0-0-0-0-0-0--0--0--0--0--0--0-|
|-4-4-4-4-4-4-4-4-4-4-4-4-4-4-4-4-5-5-5-5-5-5-5/12-12-12-12-12-12\4-|
|-------------------------------------------------------------------|
|-------------------------------------------------------------------|
|-------------------------------------------------------------------|
|-------------------------------------------------------------------|

|-0-0-0-0-0-0-0-0-0-0-0-0-0-0-0-0-0-0-0-0-0-0-0-0-0-0-0-0-0-0-0-0-0-|
|-4-4-4-4-4-4-4-4-4-4-4-4-4-4-4-5-5-5-5-5-5-5-5-1-1-1-1-1-1-1-1-0-0-|
|-------------------------------------------------------------------|
|-------------------------------------------------------------------|
|-------------------------------------------------------------------|
|-------------------------------------------------------------------|

|-0-0-0-0-0-0-0-0-0-0-0-0-0-0-0-0-0-0-0-0-0-0--0--0--0--0--0--0-0-0--|
|-0-0-0-0-0-0-0-0-0-0-0-0-0-0-5-5-5-5-5-5-5/12-12-12-12-12-12\4-4-4--|..
|--------------------------------------------------------------------|
|--------------------------------------------------------------------|
|--------------------------------------------------------------------|
|--------------------------------------------------------------------|

|-------------------------------------------------------------------------|
|-------------------------------------------------------------------------|
|-------------------------------------------------------------------------|
|-7-7-7-7---7-7-7-7-6-6-6-6---6-6-6-6-7-7-7-7---7-7-7-7-8-8-8-8---8-8-8-8-|
|-7-7-7-7---7-7-7-7-6-6-6-6---6-6-6-6-7-7-7-7---7-7-7-7-8-8-8-8---8-8-8-8-|
|-5-5-5-5...5-5-5-5-4-4-4-4...4-4-4-4-5-5-5-5...5-5-5-5-6-6-6-6...6-6-6-6-|
                                                                   repeat^

|-------------------------------------------------------------------|
|-------------------------------------------------------------------|
|-7-7-7-7---7-7-7-7-8-8-8-8---8-8-8-8-2-------2---------------------|
|-7-7-7-7---7-7-7-7-8-8-8-8---8-8-8-8-2-------2---------------------|
|-5-5-5-5...5-5-5-5-6-6-6-6...6-6-6-6-0-------0---------------------|
|-------------------------------------------------------------------|

|---------------------------------|---------------------------------|
|---------------------------------|---------------------------------|
|-2-2-2-2-------------------------|---------------------------------|
|-2-2-2-2-3-3-3-3-2-2-2-2-1-1-1-1-|-2-2-2-2-2-2-2-2-2-2-2-2--2-2-2--|
|-0-0-0-0-0-0-0-0-0-0-0-0-0-0-0-0-|-0-0-0-0-3-3-3-3-2-2-2-1--1-1-1--|
|---------------------------------|---------------------------------|

|-------------------------------------------------------------------|
|-------------------------------------------------------------------|
|-------------------------------------------------------------------|
|-------------------------------------------------------------------|
|-------------------------------------------------------------------|
|-0--0-0-0-0-1--1-1-1-1-3--3-3-3-3-4--4-4-4-4-----------------------|
  ^last time only

Repeat *2

Outro
lay on the tremolo bar for these minor chords)

|-----------------5-5-5-5--8-8-8-8--12-12-12-12--17-17-17-17--------|
|-----------------5-5-5-5--8-8-8-8--12-12-12-12--17-17-17-17--------|
|-2-2-2-2-2-2-2-2-5-5-5-5--8-8-8-8--12-12-12-12--17-17-17-17--------|
|-2-2-2-2-2-2-2-2---------------------------------------------------|
|-0-0-0-0-0-0-0-0---------------------------------------------------|
|-------------------------------------------------------------------|

Man or Astro-Man?
Configuration 9 (from Deluxe Men in Space - 1996 One Louder)

E --------|
B --------|
G --------|
D --------|
A --------|
E --------|
Intro
|---0--0--0---0--0--0--0--0--0--0--0---0--0---------|
|---4--4--5--12--4--4--5--1--0--0--5--12--4---------|
|---------------------------------------------------|
|---------------------------------------------------|
|---------------------------------------------------|
|---------------------------------------------------|
  Play 8 times each note
Main Chord Part
A   Ab   A   A#   A   Ab   D   D#
                        Guitar
                          |--------------------------|
Bass Line(Solo)           |--------------------------|
|-------------------------|--------------------------|
|-------------------------|--7--7--7--7--7--7--7--7--|
|-7--10--9--8--7--10--9--8|--0--8--7--6--0--8--7--6--|
|-------------------------|--------------------------|
  Play 4 times each note

|--------------------------------|
|--------------------------------|
|--------------------------------|  2X
|-----2-------2-------2-----2-2--|
|-0-0---0-3-3---3-2-2---1----1---|
|--------------------------------|

|--------------------------------|
|--------------------------------|
|--------------------------------|
|--7--7--7--7--7--7--7--7--------|
|--0--8--7--6--0--8--7--6--------|
|--------------------------------|
  Play 4 times each note

|--------------------------------|
|--------------------------------|
|--------------------------------|  2X
|-----2-------2-------2-----2-2--|
|-0-0---0-3-3---3-2-2---1----1---|
|--------------------------------|

Bridge to Chord Part
|--------------------------------|
|--------------------------------|
|--------------------------------|
|--------------------------------|
|--------------------------------|
|--0--1--2--4--------------------|

Chords
A   Ab   A   A#

(Bass Line)