Man Or Astro-Man - Eric Estrotic Text Guitar Tab

Learn the song with the online tablature player
ERIC ESTROTICA - by Man...or Astro-Man?

Intro

|-------------------------------------------------------------------|
|-------------------------------------------------------------------|
|-------------------------------------------------------------------|
|-------------------------------------------------------------------|
|-------------------------------------------------------------------|
|-0--0-0-0--0-0-0--0--0-0-0--0-0-0...-------------------------------|

|-------------------------------------------------------------------|
|-------------------------------------------------------------------|
|-4-----------------------------------------------------------------|
|---5-4--5-4---4-5--------------------------------------------------|
|------------5-----3--3-3-3-/7\-------------------------------------|
|--------------------------------0-0--0-0-0--0--0-0--0-0-0----------|
                                                          ^repeat
*2